  0
SECTION
  2
HEADER
  9
$ACADVER
  1
AC1027
  9
$ACADMAINTVER
 70
     8
  9
$DWGCODEPAGE
  3
ANSI_1252
  9
$REQUIREDVERSIONS
160
                 0
  9
$INSBASE
 10
0.0
 20
0.0
 30
0.0
  9
$EXTMIN
 10
1.000000000000000E+20
 20
1.000000000000000E+20
 30
1.000000000000000E+20
  9
$EXTMAX
 10
-1.000000000000000E+20
 20
-1.000000000000000E+20
 30
-1.000000000000000E+20
  9
$LIMMIN
 10
0.0
 20
0.0
  9
$LIMMAX
 10
12.0
 20
9.0
  9
$ORTHOMODE
 70
     0
  9
$REGENMODE
 70
     1
  9
$FILLMODE
 70
     1
  9
$QTEXTMODE
 70
     0
  9
$MIRRTEXT
 70
     1
  9
$LTSCALE
 40
1.0
  9
$ATTMODE
 70
     1
  9
$TEXTSIZE
 40
0.2
  9
$TRACEWID
 40
0.05
  9
$TEXTSTYLE
  7
Standard
  9
$CLAYER
  8
0
  9
$CELTYPE
  6
ByLayer
  9
$CECOLOR
 62
    18
  9
$CELTSCALE
 40
1.0
  9
$DISPSILH
 70
     0
  9
$DIMSCALE
 40
1.0
  9
$DIMASZ
 40
2.5
  9
$DIMEXO
 40
0.625
  9
$DIMDLI
 40
0.38
  9
$DIMRND
 40
0.0
  9
$DIMDLE
 40
0.0
  9
$DIMEXE
 40
1.25
  9
$DIMTP
 40
0.0
  9
$DIMTM
 40
0.0
  9
$DIMTXT
 40
2.5
  9
$DIMCEN
 40
0.09
  9
$DIMTSZ
 40
0.0
  9
$DIMTOL
 70
     0
  9
$DIMLIM
 70
     0
  9
$DIMTIH
 70
     1
  9
$DIMTOH
 70
     1
  9
$DIMSE1
 70
     0
  9
$DIMSE2
 70
     0
  9
$DIMTAD
 70
     0
  9
$DIMZIN
 70
     8
  9
$DIMBLK
  1

  9
$DIMASO
 70
     1
  9
$DIMSHO
 70
     1
  9
$DIMPOST
  1

  9
$DIMAPOST
  1

  9
$DIMALT
 70
     0
  9
$DIMALTD
 70
     2
  9
$DIMALTF
 40
25.4
  9
$DIMLFAC
 40
1.0
  9
$DIMTOFL
 70
     0
  9
$DIMTVP
 40
0.0
  9
$DIMTIX
 70
     0
  9
$DIMSOXD
 70
     0
  9
$DIMSAH
 70
     0
  9
$DIMBLK1
  1

  9
$DIMBLK2
  1

  9
$DIMSTYLE
  2
Standard
  9
$DIMCLRD
 70
    18
  9
$DIMCLRE
 70
    18
  9
$DIMCLRT
 70
    18
  9
$DIMTFAC
 40
1.0
  9
$DIMGAP
 40
0.625
  9
$DIMJUST
 70
     0
  9
$DIMSD1
 70
     0
  9
$DIMSD2
 70
     0
  9
$DIMTOLJ
 70
     1
  9
$DIMTZIN
 70
     0
  9
$DIMALTZ
 70
     0
  9
$DIMALTTZ
 70
     0
  9
$DIMUPT
 70
     0
  9
$DIMDEC
 70
     4
  9
$DIMTDEC
 70
     4
  9
$DIMALTU
 70
     2
  9
$DIMALTTD
 70
     2
  9
$DIMTXSTY
  7
Standard
  9
$DIMAUNIT
 70
     0
  9
$DIMADEC
 70
     0
  9
$DIMALTRND
 40
0.0
  9
$DIMAZIN
 70
     2
  9
$DIMDSEP
 70
    46
  9
$DIMATFIT
 70
     3
  9
$DIMFRAC
 70
     0
  9
$DIMLDRBLK
  1

  9
$DIMLUNIT
 70
     2
  9
$DIMLWD
 70
    -2
  9
$DIMLWE
 70
    -2
  9
$DIMTMOVE
 70
     0
  9
$DIMFXL
 40
1.0
  9
$DIMFXLON
 70
     0
  9
$DIMJOGANG
 40
0.7853981633974483
  9
$DIMTFILL
 70
     0
  9
$DIMTFILLCLR
 70
     0
  9
$DIMARCSYM
 70
     0
  9
$DIMLTYPE
  6

  9
$DIMLTEX1
  6

  9
$DIMLTEX2
  6

  9
$DIMTXTDIRECTION
 70
     0
  9
$LUNITS
 70
     2
  9
$LUPREC
 70
     4
  9
$SKETCHINC
 40
0.1
  9
$FILLETRAD
 40
0.5
  9
$AUNITS
 70
     0
  9
$AUPREC
 70
     0
  9
$MENU
  1
.
  9
$ELEVATION
 40
0.0
  9
$PELEVATION
 40
0.0
  9
$THICKNESS
 40
0.0
  9
$LIMCHECK
 70
     0
  9
$CHAMFERA
 40
0.0
  9
$CHAMFERB
 40
0.0
  9
$CHAMFERC
 40
0.0
  9
$CHAMFERD
 40
0.0
  9
$SKPOLY
 70
     0
  9
$TDCREATE
 40
2457780.42623132
  9
$TDUCREATE
 40
2457780.384564653
  9
$TDUPDATE
 40
2457780.426233518
  9
$TDUUPDATE
 40
2457780.384566852
  9
$TDINDWG
 40
0.0000000116
  9
$TDUSRTIMER
 40
0.0000000116
  9
$USRTIMER
 70
     1
  9
$ANGBASE
 50
0.0
  9
$ANGDIR
 70
     0
  9
$PDMODE
 70
     0
  9
$PDSIZE
 40
0.0
  9
$PLINEWID
 40
0.0
  9
$SPLFRAME
 70
     0
  9
$SPLINETYPE
 70
     6
  9
$SPLINESEGS
 70
     8
  9
$HANDSEED
  5
684
  9
$SURFTAB1
 70
     6
  9
$SURFTAB2
 70
     6
  9
$SURFTYPE
 70
     6
  9
$SURFU
 70
     6
  9
$SURFV
 70
     6
  9
$UCSBASE
  2

  9
$UCSNAME
  2

  9
$UCSORG
 10
0.0
 20
0.0
 30
0.0
  9
$UCSXDIR
 10
1.0
 20
0.0
 30
0.0
  9
$UCSYDIR
 10
0.0
 20
1.0
 30
0.0
  9
$UCSORTHOREF
  2

  9
$UCSORTHOVIEW
 70
     0
  9
$UCSORGTOP
 10
0.0
 20
0.0
 30
0.0
  9
$UCSORGBOTTOM
 10
0.0
 20
0.0
 30
0.0
  9
$UCSORGLEFT
 10
0.0
 20
0.0
 30
0.0
  9
$UCSORGRIGHT
 10
0.0
 20
0.0
 30
0.0
  9
$UCSORGFRONT
 10
0.0
 20
0.0
 30
0.0
  9
$UCSORGBACK
 10
0.0
 20
0.0
 30
0.0
  9
$PUCSBASE
  2

  9
$PUCSNAME
  2

  9
$PUCSORG
 10
0.0
 20
0.0
 30
0.0
  9
$PUCSXDIR
 10
1.0
 20
0.0
 30
0.0
  9
$PUCSYDIR
 10
0.0
 20
1.0
 30
0.0
  9
$PUCSORTHOREF
  2

  9
$PUCSORTHOVIEW
 70
     0
  9
$PUCSORGTOP
 10
0.0
 20
0.0
 30
0.0
  9
$PUCSORGBOTTOM
 10
0.0
 20
0.0
 30
0.0
  9
$PUCSORGLEFT
 10
0.0
 20
0.0
 30
0.0
  9
$PUCSORGRIGHT
 10
0.0
 20
0.0
 30
0.0
  9
$PUCSORGFRONT
 10
0.0
 20
0.0
 30
0.0
  9
$PUCSORGBACK
 10
0.0
 20
0.0
 30
0.0
  9
$USERI1
 70
     0
  9
$USERI2
 70
     0
  9
$USERI3
 70
     0
  9
$USERI4
 70
     0
  9
$USERI5
 70
     0
  9
$USERR1
 40
0.0
  9
$USERR2
 40
0.0
  9
$USERR3
 40
0.0
  9
$USERR4
 40
0.0
  9
$USERR5
 40
0.0
  9
$WORLDVIEW
 70
     1
  9
$SHADEDGE
 70
     3
  9
$SHADEDIF
 70
    70
  9
$TILEMODE
 70
     1
  9
$MAXACTVP
 70
    64
  9
$PINSBASE
 10
0.0
 20
0.0
 30
0.0
  9
$PLIMCHECK
 70
     0
  9
$PEXTMIN
 10
1.000000000000000E+20
 20
1.000000000000000E+20
 30
1.000000000000000E+20
  9
$PEXTMAX
 10
-1.000000000000000E+20
 20
-1.000000000000000E+20
 30
-1.000000000000000E+20
  9
$PLIMMIN
 10
0.0
 20
0.0
  9
$PLIMMAX
 10
12.0
 20
9.0
  9
$UNITMODE
 70
     0
  9
$VISRETAIN
 70
     1
  9
$PLINEGEN
 70
     0
  9
$PSLTSCALE
 70
     1
  9
$TREEDEPTH
 70
  3020
  9
$CMLSTYLE
  2
Standard
  9
$CMLJUST
 70
     0
  9
$CMLSCALE
 40
1.0
  9
$PROXYGRAPHICS
 70
     1
  9
$MEASUREMENT
 70
     1
  9
$CELWEIGHT
370
    -1
  9
$ENDCAPS
280
     0
  9
$JOINSTYLE
280
     0
  9
$LWDISPLAY
290
     0
  9
$INSUNITS
 70
     4
  9
$HYPERLINKBASE
  1

  9
$STYLESHEET
  1

  9
$XEDIT
290
     1
  9
$CEPSNTYPE
380
     0
  9
$PSTYLEMODE
290
     1
  9
$FINGERPRINTGUID
  2
{5326C3F9-9EEE-4583-A174-F720B56C7E3C}
  9
$VERSIONGUID
  2
{FAEB1C32-E019-11D5-929B-00C0DF256EC4}
  9
$EXTNAMES
290
     1
  9
$PSVPSCALE
 40
0.0
  9
$OLESTARTUP
290
     0
  9
$SORTENTS
280
   127
  9
$INDEXCTL
280
     0
  9
$HIDETEXT
280
     1
  9
$XCLIPFRAME
280
     2
  9
$HALOGAP
280
     0
  9
$OBSCOLOR
 70
   257
  9
$OBSLTYPE
280
     0
  9
$INTERSECTIONDISPLAY
280
     0
  9
$INTERSECTIONCOLOR
 70
   257
  9
$DIMASSOC
280
     2
  9
$PROJECTNAME
  1

  9
$CAMERADISPLAY
290
     0
  9
$LENSLENGTH
 40
50.0
  9
$CAMERAHEIGHT
 40
0.0
  9
$STEPSPERSEC
 40
2.0
  9
$STEPSIZE
 40
6.0
  9
$3DDWFPREC
 40
2.0
  9
$PSOLWIDTH
 40
0.25
  9
$PSOLHEIGHT
 40
4.0
  9
$LOFTANG1
 40
1.570796326794897
  9
$LOFTANG2
 40
1.570796326794897
  9
$LOFTMAG1
 40
0.0
  9
$LOFTMAG2
 40
0.0
  9
$LOFTPARAM
 70
     7
  9
$LOFTNORMALS
280
     1
  9
$LATITUDE
 40
37.795
  9
$LONGITUDE
 40
-122.394
  9
$NORTHDIRECTION
 40
0.0
  9
$TIMEZONE
 70
 -8000
  9
$LIGHTGLYPHDISPLAY
280
     1
  9
$TILEMODELIGHTSYNCH
280
     1
  9
$CMATERIAL
347
613
  9
$SOLIDHIST
280
     1
  9
$SHOWHIST
280
     1
  9
$DWFFRAME
280
     2
  9
$DGNFRAME
280
     2
  9
$REALWORLDSCALE
290
     1
  9
$INTERFERECOLOR
 62
   256
  9
$CSHADOW
280
     0
  9
$SHADOWPLANELOCATION
 40
0.0
  0
ENDSEC
  0
SECTION
  2
CLASSES
  0
CLASS
  1
ACDBDICTIONARYWDFLT
  2
AcDbDictionaryWithDefault
  3
ObjectDBX Classes
 90
        0
 91
        4
280
     0
281
     0
  0
CLASS
  1
VISUALSTYLE
  2
AcDbVisualStyle
  3
ObjectDBX Classes
 90
     4095
 91
        4
280
     0
281
     0
  0
CLASS
  1
MATERIAL
  2
AcDbMaterial
  3
ObjectDBX Classes
 90
     1153
 91
        4
280
     0
281
     0
  0
CLASS
  1
SCALE
  2
AcDbScale
  3
ObjectDBX Classes
 90
     1153
 91
        4
280
     0
281
     0
  0
CLASS
  1
SUN
  2
AcDbSun
  3
SCENEOE
 90
     1153
 91
        4
280
     0
281
     0
  0
CLASS
  1
DICTIONARYVAR
  2
AcDbDictionaryVar
  3
ObjectDBX Classes
 90
        0
 91
        4
280
     0
281
     0
  0
ENDSEC
  0
SECTION
  2
TABLES
  0
TABLE
  2
VPORT
  5
5D8
330
0
100
AcDbSymbolTable
 70
     1
  0
VPORT
  5
5F8
330
5D8
100
AcDbSymbolTableRecord
100
AcDbViewportTableRecord
  2
*Active
 70
     0
 10
0.0
 20
0.0
 11
1.0
 21
1.0
 12
10.42990654205607
 22
4.5
 13
0.0
 23
0.0
 14
0.5
 24
0.5
 15
0.5
 25
0.5
 16
0.0
 26
0.0
 36
1.0
 17
0.0
 27
0.0
 37
0.0
 40
9.0
 41
1.972972972850329
 42
50.0
 43
0.0
 44
0.0
 50
0.0
 51
0.0
 71
     0
 72
   100
 73
     1
 74
     3
 75
     0
 76
     0
 77
     0
 78
     0
281
     0
 65
     1
110
0.0
120
0.0
130
0.0
111
1.0
121
0.0
131
0.0
112
0.0
122
1.0
132
0.0
 79
     0
146
0.0
 60
     3
 61
     5
292
     1
282
     1
141
0.0
142
0.0
 63
   250
361
638
  0
ENDTAB
  0
TABLE
  2
LTYPE
  5
5D5
330
0
100
AcDbSymbolTable
 70
    19
  0
LTYPE
  5
5E3
330
5D5
100
AcDbSymbolTableRecord
100
AcDbLinetypeTableRecord
  2
ByBlock
 70
     0
  3

 72
    65
 73
     0
 40
0.0
  0
LTYPE
  5
5E4
330
5D5
100
AcDbSymbolTableRecord
100
AcDbLinetypeTableRecord
  2
ByLayer
 70
     0
  3

 72
    65
 73
     0
 40
0.0
  0
LTYPE
  5
5E5
330
5D5
100
AcDbSymbolTableRecord
100
AcDbLinetypeTableRecord
  2
Continuous
 70
     0
  3
Solid line
 72
    65
 73
     0
 40
0.0
  0
LTYPE
  5
667
330
5D5
100
AcDbSymbolTableRecord
100
AcDbLinetypeTableRecord
  2
BORDER
 70
     0
  3

 72
    65
 73
     6
 40
42.00000000000001
 49
12.0
 74
     0
 49
-6.0
 74
     0
 49
12.0
 74
     0
 49
-5.95
 74
     0
 49
0.1
 74
     0
 49
-5.95
 74
     0
  0
LTYPE
  5
668
330
5D5
100
AcDbSymbolTableRecord
100
AcDbLinetypeTableRecord
  2
BORDER2
 70
     0
  3

 72
    65
 73
     6
 40
21.0
 49
6.0
 74
     0
 49
-3.0
 74
     0
 49
6.0
 74
     0
 49
-2.95
 74
     0
 49
0.1
 74
     0
 49
-2.95
 74
     0
  0
LTYPE
  5
669
330
5D5
100
AcDbSymbolTableRecord
100
AcDbLinetypeTableRecord
  2
BORDERX2
 70
     0
  3

 72
    65
 73
     6
 40
84.0
 49
24.0
 74
     0
 49
-12.0
 74
     0
 49
24.0
 74
     0
 49
-11.95
 74
     0
 49
0.1
 74
     0
 49
-11.95
 74
     0
  0
LTYPE
  5
66A
330
5D5
100
AcDbSymbolTableRecord
100
AcDbLinetypeTableRecord
  2
CENTER
 70
     0
  3

 72
    65
 73
     4
 40
50.0
 49
32.0
 74
     0
 49
-6.0
 74
     0
 49
6.0
 74
     0
 49
-6.0
 74
     0
  0
LTYPE
  5
66B
330
5D5
100
AcDbSymbolTableRecord
100
AcDbLinetypeTableRecord
  2
CENTER2
 70
     0
  3

 72
    65
 73
     4
 40
25.0
 49
16.0
 74
     0
 49
-3.0
 74
     0
 49
3.0
 74
     0
 49
-3.0
 74
     0
  0
LTYPE
  5
66C
330
5D5
100
AcDbSymbolTableRecord
100
AcDbLinetypeTableRecord
  2
CENTERX2
 70
     0
  3

 72
    65
 73
     4
 40
100.0
 49
64.0
 74
     0
 49
-12.0
 74
     0
 49
12.0
 74
     0
 49
-12.0
 74
     0
  0
LTYPE
  5
66D
330
5D5
100
AcDbSymbolTableRecord
100
AcDbLinetypeTableRecord
  2
DASHDOT
 70
     0
  3

 72
    65
 73
     4
 40
24.0
 49
12.0
 74
     0
 49
-5.95
 74
     0
 49
0.1
 74
     0
 49
-5.95
 74
     0
  0
LTYPE
  5
66E
330
5D5
100
AcDbSymbolTableRecord
100
AcDbLinetypeTableRecord
  2
DASHDOT2
 70
     0
  3

 72
    65
 73
     4
 40
12.0
 49
6.0
 74
     0
 49
-2.95
 74
     0
 49
0.1
 74
     0
 49
-2.95
 74
     0
  0
LTYPE
  5
66F
330
5D5
100
AcDbSymbolTableRecord
100
AcDbLinetypeTableRecord
  2
DASHDOTX2
 70
     0
  3

 72
    65
 73
     4
 40
48.0
 49
24.0
 74
     0
 49
-11.95
 74
     0
 49
0.1
 74
     0
 49
-11.95
 74
     0
  0
LTYPE
  5
670
330
5D5
100
AcDbSymbolTableRecord
100
AcDbLinetypeTableRecord
  2
DASHED
 70
     0
  3

 72
    65
 73
     2
 40
18.0
 49
12.0
 74
     0
 49
-6.0
 74
     0
  0
LTYPE
  5
671
330
5D5
100
AcDbSymbolTableRecord
100
AcDbLinetypeTableRecord
  2
DASHED2
 70
     0
  3

 72
    65
 73
     2
 40
9.0
 49
6.0
 74
     0
 49
-3.0
 74
     0
  0
LTYPE
  5
672
330
5D5
100
AcDbSymbolTableRecord
100
AcDbLinetypeTableRecord
  2
DASHEDX2
 70
     0
  3

 72
    65
 73
     2
 40
36.0
 49
24.0
 74
     0
 49
-12.0
 74
     0
  0
LTYPE
  5
673
330
5D5
100
AcDbSymbolTableRecord
100
AcDbLinetypeTableRecord
  2
DIVIDE
 70
     0
  3

 72
    65
 73
     6
 40
29.99999999999999
 49
12.0
 74
     0
 49
-5.9
 74
     0
 49
0.15
 74
     0
 49
-5.9
 74
     0
 49
0.15
 74
     0
 49
-5.9
 74
     0
  0
LTYPE
  5
674
330
5D5
100
AcDbSymbolTableRecord
100
AcDbLinetypeTableRecord
  2
DIVIDE2
 70
     0
  3

 72
    65
 73
     6
 40
15.0
 49
6.0
 74
     0
 49
-2.9
 74
     0
 49
0.15
 74
     0
 49
-2.9
 74
     0
 49
0.15
 74
     0
 49
-2.9
 74
     0
  0
LTYPE
  5
675
330
5D5
100
AcDbSymbolTableRecord
100
AcDbLinetypeTableRecord
  2
DIVIDEX2
 70
     0
  3

 72
    65
 73
     6
 40
59.99999999999999
 49
24.0
 74
     0
 49
-11.9
 74
     0
 49
0.15
 74
     0
 49
-11.9
 74
     0
 49
0.15
 74
     0
 49
-11.9
 74
     0
  0
LTYPE
  5
676
330
5D5
100
AcDbSymbolTableRecord
100
AcDbLinetypeTableRecord
  2
DOT
 70
     0
  3

 72
    65
 73
     2
 40
6.3
 49
0.1
 74
     0
 49
-6.2
 74
     0
  0
LTYPE
  5
677
330
5D5
100
AcDbSymbolTableRecord
100
AcDbLinetypeTableRecord
  2
DOT2
 70
     0
  3

 72
    65
 73
     2
 40
3.2
 49
0.1
 74
     0
 49
-3.1
 74
     0
  0
LTYPE
  5
678
330
5D5
100
AcDbSymbolTableRecord
100
AcDbLinetypeTableRecord
  2
DOTX2
 70
     0
  3

 72
    65
 73
     2
 40
12.5
 49
0.1
 74
     0
 49
-12.4
 74
     0
  0
ENDTAB
  0
TABLE
  2
LAYER
  5
5D2
330
0
100
AcDbSymbolTable
 70
     6
  0
LAYER
  5
5E0
330
5D2
100
AcDbSymbolTableRecord
100
AcDbLayerTableRecord
  2
0
 70
     0
 62
    18
420
        0
  6
Continuous
370
    25
390
5DF
347
615
348
0
  0
LAYER
  5
679
330
5D2
100
AcDbSymbolTableRecord
100
AcDbLayerTableRecord
  2
layer 4
 70
     0
 62
    18
420
        0
  6
Continuous
370
     9
390
5DF
347
615
348
0
  0
LAYER
  5
67A
330
5D2
100
AcDbSymbolTableRecord
100
AcDbLayerTableRecord
  2
layer 3
 70
     0
 62
     7
420
 16777215
  6
Continuous
370
    25
390
5DF
347
615
348
0
  0
LAYER
  5
67B
330
5D2
100
AcDbSymbolTableRecord
100
AcDbLayerTableRecord
  2
layer 1
 70
     0
 62
     4
420
    65535
  6
Continuous
370
    25
390
5DF
347
615
348
0
  0
LAYER
  5
67C
330
5D2
100
AcDbSymbolTableRecord
100
AcDbLayerTableRecord
  2
layer 2
 70
     0
 62
     1
420
 16711680
  6
Continuous
370
    25
390
5DF
347
615
348
0
  0
LAYER
  5
67D
330
5D2
100
AcDbSymbolTableRecord
100
AcDbLayerTableRecord
  2
layer 5
 70
     0
 62
     5
420
      255
  6
Continuous
370
    25
390
5DF
347
615
348
0
  0
ENDTAB
  0
TABLE
  2
STYLE
  5
5D3
330
0
100
AcDbSymbolTable
 70
     1
  0
STYLE
  5
5E1
330
5D3
100
AcDbSymbolTableRecord
100
AcDbTextStyleTableRecord
  2
Standard
 70
     0
 40
0.0
 41
1.0
 50
0.0
 71
     0
 42
0.2
  3
txt
  4

  0
ENDTAB
  0
TABLE
  2
VIEW
  5
5D6
330
0
100
AcDbSymbolTable
 70
     0
  0
ENDTAB
  0
TABLE
  2
UCS
  5
5D7
330
0
100
AcDbSymbolTable
 70
     0
  0
ENDTAB
  0
TABLE
  2
APPID
  5
5D9
330
0
100
AcDbSymbolTable
 70
     2
  0
APPID
  5
5E2
330
5D9
100
AcDbSymbolTableRecord
100
AcDbRegAppTableRecord
  2
ACAD
 70
     0
  0
APPID
  5
639
330
5D9
100
AcDbSymbolTableRecord
100
AcDbRegAppTableRecord
  2
QCAD
 70
     0
  0
ENDTAB
  0
TABLE
  2
DIMSTYLE
  5
5DA
330
0
100
AcDbSymbolTable
 70
     2
100
AcDbDimStyleTable
  0
DIMSTYLE
105
5F6
330
5DA
100
AcDbSymbolTableRecord
100
AcDbDimStyleTableRecord
  2
Standard
 70
     0
178
     0
340
5E1
  0
DIMSTYLE
105
666
330
5DA
100
AcDbSymbolTableRecord
100
AcDbDimStyleTableRecord
  2
QCADDimStyle
 70
     0
 41
2.5
 42
0.625
 44
1.25
 73
     0
 77
     1
140
2.5
147
0.625
178
     0
340
5E1
  0
ENDTAB
  0
TABLE
  2
BLOCK_RECORD
  5
5D1
330
0
100
AcDbSymbolTable
 70
     1
  0
BLOCK_RECORD
  5
5EE
330
5D1
100
AcDbSymbolTableRecord
100
AcDbBlockTableRecord
  2
*Model_Space
340
5F1
 70
     0
280
     1
281
     0
  0
BLOCK_RECORD
  5
5EA
330
5D1
100
AcDbSymbolTableRecord
100
AcDbBlockTableRecord
  2
*Paper_Space
340
5ED
 70
     0
280
     1
281
     0
  0
BLOCK_RECORD
  5
5F2
330
5D1
100
AcDbSymbolTableRecord
100
AcDbBlockTableRecord
  2
*Paper_Space0
340
5F5
 70
     0
280
     1
281
     0
  0
ENDTAB
  0
ENDSEC
  0
SECTION
  2
BLOCKS
  0
BLOCK
  5
5EF
330
5EE
100
AcDbEntity
  8
0
100
AcDbBlockBegin
  2
*Model_Space
 70
     0
 10
0.0
 20
0.0
 30
0.0
  3
*Model_Space
  1
*Model_Space
  0
ENDBLK
  5
5F0
330
5EE
100
AcDbEntity
  8
0
100
AcDbBlockEnd
  0
BLOCK
  5
5EB
330
5EA
100
AcDbEntity
 67
     1
  8
0
100
AcDbBlockBegin
  2
*Paper_Space
 70
     0
 10
0.0
 20
0.0
 30
0.0
  3
*Paper_Space
  1
*Paper_Space
  0
ENDBLK
  5
5EC
330
5EA
100
AcDbEntity
 67
     1
  8
0
100
AcDbBlockEnd
  0
BLOCK
  5
5F3
330
5F2
100
AcDbEntity
  8
0
100
AcDbBlockBegin
  2
*Paper_Space0
 70
     0
 10
0.0
 20
0.0
 30
0.0
  3
*Paper_Space0
  1
*Paper_Space0
  0
ENDBLK
  5
5F4
330
5F2
100
AcDbEntity
  8
0
100
AcDbBlockEnd
  0
ENDSEC
  0
SECTION
  2
ENTITIES
  0
LINE
  5
18B
330
5EE
100
AcDbEntity
  8
layer 4
100
AcDbLine
 10
0.0
 20
0.0
 30
0.0
 11
0.0
 21
8.0
 31
0.0
  0
LINE
  5
18C
330
5EE
100
AcDbEntity
  8
layer 4
100
AcDbLine
 10
0.0
 20
10.0
 30
0.0
 11
2.0
 21
10.0
 31
0.0
  0
LINE
  5
18D
330
5EE
100
AcDbEntity
  8
layer 4
100
AcDbLine
 10
10.0
 20
10.0
 30
0.0
 11
10.0
 21
8.0
 31
0.0
  0
LINE
  5
18E
330
5EE
100
AcDbEntity
  8
layer 4
100
AcDbLine
 10
10.0
 20
0.0
 30
0.0
 11
6.0
 21
0.0
 31
0.0
  0
LINE
  5
18F
330
5EE
100
AcDbEntity
  8
layer 4
100
AcDbLine
 10
0.0
 20
0.0
 30
0.0
 11
2.0
 21
2.0
 31
0.0
  0
LINE
  5
190
330
5EE
100
AcDbEntity
  8
layer 5
100
AcDbLine
 10
5.0
 20
5.0
 30
0.0
 11
8.0
 21
2.0
 31
0.0
  0
LINE
  5
191
330
5EE
100
AcDbEntity
  8
layer 4
100
AcDbLine
 10
10.0
 20
0.0
 30
0.0
 11
9.0
 21
2.0
 31
0.0
  0
LINE
  5
192
330
5EE
100
AcDbEntity
  8
layer 4
100
AcDbLine
 10
5.0
 20
10.0
 30
0.0
 11
3.0
 21
6.0
 31
0.0
  0
LINE
  5
193
330
5EE
100
AcDbEntity
  8
layer 4
100
AcDbLine
 10
0.0
 20
6.0
 30
0.0
 11
5.0
 21
10.0
 31
0.0
  0
LINE
  5
194
330
5EE
100
AcDbEntity
  8
layer 4
100
AcDbLine
 10
1.420534407511212
 20
12.84474783303292
 30
0.0
 11
1.420534407511212
 21
12.84474783303292
 31
0.0
  0
LINE
  5
195
330
5EE
100
AcDbEntity
  8
layer 4
100
AcDbLine
 10
5.0
 20
10.0
 30
0.0
 11
10.0
 21
6.0
 31
0.0
  0
LINE
  5
196
330
5EE
100
AcDbEntity
  8
layer 4
100
AcDbLine
 10
10.0
 20
6.0
 30
0.0
 11
9.0
 21
6.0
 31
0.0
  0
LINE
  5
197
330
5EE
100
AcDbEntity
  8
layer 4
100
AcDbLine
 10
3.0
 20
6.0
 30
0.0
 11
1.0
 21
6.0
 31
0.0
  0
LINE
  5
198
330
5EE
100
AcDbEntity
  8
layer 5
100
AcDbLine
 10
4.0
 20
2.0
 30
0.0
 11
6.0
 21
2.0
 31
0.0
  0
LINE
  5
199
330
5EE
100
AcDbEntity
  8
layer 4
100
AcDbLine
 10
4.0
 20
2.0
 30
0.0
 11
4.0
 21
0.0
 31
0.0
  0
LINE
  5
19A
330
5EE
100
AcDbEntity
  8
layer 4
100
AcDbLine
 10
6.0
 20
2.0
 30
0.0
 11
6.0
 21
0.0
 31
0.0
  0
LINE
  5
19B
330
5EE
100
AcDbEntity
  8
layer 4
100
AcDbLine
 10
5.0
 20
7.0
 30
0.0
 11
4.0
 21
5.0
 31
0.0
  0
LINE
  5
19C
330
5EE
100
AcDbEntity
  8
layer 4
100
AcDbLine
 10
4.0
 20
5.0
 30
0.0
 11
5.0
 21
6.0
 31
0.0
  0
LINE
  5
19D
330
5EE
100
AcDbEntity
  8
layer 4
100
AcDbLine
 10
5.0
 20
6.0
 30
0.0
 11
6.0
 21
5.0
 31
0.0
  0
LINE
  5
19E
330
5EE
100
AcDbEntity
  8
layer 4
100
AcDbLine
 10
6.0
 20
5.0
 30
0.0
 11
5.0
 21
7.0
 31
0.0
  0
LINE
  5
19F
330
5EE
100
AcDbEntity
  8
layer 5
100
AcDbLine
 10
10.42053440751121
 20
7.844747833032917
 30
0.0
 11
10.42053440751121
 21
7.844747833032917
 31
0.0
  0
LINE
  5
1A0
330
5EE
100
AcDbEntity
  8
layer 4
100
AcDbLine
 10
9.0
 20
6.0
 30
0.0
 11
9.0
 21
6.0
 31
0.0
  0
HATCH
  5
1A7
330
5EE
100
AcDbEntity
  8
layer 4
100
AcDbHatch
 10
0.0
 20
0.0
 30
0.0
210
0.0
220
0.0
230
1.0
  2
SOLID
 70
     1
 71
     0
 91
        1
 92
        0
 93
        4
 72
     1
 10
5.0
 20
7.0
 11
4.0
 21
5.0
 72
     1
 10
4.0
 20
5.0
 11
5.0
 21
6.0
 72
     1
 10
5.0
 20
6.0
 11
6.0
 21
5.0
 72
     1
 10
6.0
 20
5.0
 11
5.0
 21
7.0
 97
        0
 75
     0
 76
     1
 98
        0
  0
LINE
  5
1A8
330
5EE
100
AcDbEntity
  8
layer 4
100
AcDbLine
 10
2.0
 20
10.0
 30
0.0
 11
8.0
 21
10.0
 31
0.0
  0
LINE
  5
1A9
330
5EE
100
AcDbEntity
  8
layer 5
100
AcDbLine
 10
6.0
 20
2.0
 30
0.0
 11
8.0
 21
2.0
 31
0.0
  0
LINE
  5
1AA
330
5EE
100
AcDbEntity
  8
layer 5
100
AcDbLine
 10
2.0
 20
2.0
 30
0.0
 11
4.0
 21
2.0
 31
0.0
  0
LINE
  5
1AB
330
5EE
100
AcDbEntity
  8
layer 4
100
AcDbLine
 10
4.0
 20
0.0
 30
0.0
 11
0.0
 21
0.0
 31
0.0
  0
LINE
  5
1AC
330
5EE
100
AcDbEntity
  8
layer 4
100
AcDbLine
 10
6.0
 20
0.0
 30
0.0
 11
4.0
 21
0.0
 31
0.0
  0
HATCH
  5
1AE
330
5EE
100
AcDbEntity
  8
0
100
AcDbHatch
 10
0.0
 20
0.0
 30
0.0
210
0.0
220
0.0
230
1.0
  2
SOLID
 70
     1
 71
     0
 91
        1
 92
        0
 93
        4
 72
     1
 10
4.0
 20
2.0
 11
4.0
 21
0.0
 72
     1
 10
4.0
 20
0.0
 11
6.0
 21
0.0
 72
     1
 10
6.0
 20
0.0
 11
6.0
 21
2.0
 72
     1
 10
6.0
 20
2.0
 11
4.0
 21
2.0
 97
        0
 75
     0
 76
     1
 98
        0
  0
LINE
  5
1AF
330
5EE
100
AcDbEntity
  8
layer 4
100
AcDbLine
 10
7.0
 20
6.0
 30
0.0
 11
5.0
 21
10.0
 31
0.0
  0
LINE
  5
1B0
330
5EE
100
AcDbEntity
  8
layer 4
100
AcDbLine
 10
9.0
 20
2.0
 30
0.0
 11
9.0
 21
2.0
 31
0.0
  0
LINE
  5
1B1
330
5EE
100
AcDbEntity
  8
layer 4
100
AcDbLine
 10
9.0
 20
2.0
 30
0.0
 11
7.0
 21
6.0
 31
0.0
  0
LINE
  5
1B2
330
5EE
100
AcDbEntity
  8
layer 4
100
AcDbLine
 10
9.0
 20
6.0
 30
0.0
 11
9.0
 21
2.0
 31
0.0
  0
LINE
  5
1B3
330
5EE
100
AcDbEntity
  8
layer 4
100
AcDbLine
 10
9.0
 20
6.0
 30
0.0
 11
7.0
 21
6.0
 31
0.0
  0
LINE
  5
1B4
330
5EE
100
AcDbEntity
  8
layer 5
100
AcDbLine
 10
10.42053440751121
 20
7.844747833032917
 30
0.0
 11
10.42053440751121
 21
7.844747833032917
 31
0.0
  0
LINE
  5
1B5
330
5EE
100
AcDbEntity
  8
layer 4
100
AcDbLine
 10
1.0
 20
2.0
 30
0.0
 11
1.0
 21
2.0
 31
0.0
  0
LINE
  5
1B6
330
5EE
100
AcDbEntity
  8
layer 4
100
AcDbLine
 10
3.0
 20
6.0
 30
0.0
 11
1.0
 21
2.0
 31
0.0
  0
LINE
  5
1B7
330
5EE
100
AcDbEntity
  8
layer 4
100
AcDbLine
 10
-0.5794655924887877
 20
8.844747833032917
 30
0.0
 11
-0.5794655924887877
 21
8.844747833032917
 31
0.0
  0
LINE
  5
1B8
330
5EE
100
AcDbEntity
  8
layer 4
100
AcDbLine
 10
1.0
 20
2.0
 30
0.0
 11
0.0
 21
0.0
 31
0.0
  0
HATCH
  5
1B9
330
5EE
100
AcDbEntity
  8
layer 2
100
AcDbHatch
 10
0.0
 20
0.0
 30
0.0
210
0.0
220
0.0
230
1.0
  2
SOLID
 70
     1
 71
     0
 91
        1
 92
        0
 93
        5
 72
     1
 10
9.0
 20
2.0
 11
9.0
 21
2.0
 72
     1
 10
9.0
 20
2.0
 11
7.0
 21
6.0
 72
     1
 10
7.0
 20
6.0
 11
9.0
 21
6.0
 72
     1
 10
9.0
 20
6.0
 11
9.0
 21
6.0
 72
     1
 10
9.0
 20
6.0
 11
9.0
 21
2.0
 97
        0
 75
     0
 76
     1
 98
        0
  0
LINE
  5
1BA
330
5EE
100
AcDbEntity
  8
layer 4
100
AcDbLine
 10
1.0
 20
6.0
 30
0.0
 11
1.0
 21
2.0
 31
0.0
  0
LINE
  5
1BB
330
5EE
100
AcDbEntity
  8
layer 4
100
AcDbLine
 10
1.0
 20
6.0
 30
0.0
 11
0.0
 21
6.0
 31
0.0
  0
HATCH
  5
1BC
330
5EE
100
AcDbEntity
  8
0
 62
    18
420
        0
100
AcDbHatch
 10
0.0
 20
0.0
 30
0.0
210
0.0
220
0.0
230
1.0
  2
SOLID
 70
     1
 71
     0
 91
        1
 92
        0
 93
        5
 72
     1
 10
1.0
 20
6.0
 11
1.0
 21
6.0
 72
     1
 10
1.0
 20
6.0
 11
1.0
 21
6.0
 72
     1
 10
1.0
 20
6.0
 11
3.0
 21
6.0
 72
     1
 10
3.0
 20
6.0
 11
1.0
 21
2.0
 72
     1
 10
1.0
 20
2.0
 11
1.0
 21
6.0
 97
        0
 75
     0
 76
     1
 98
        0
  0
LINE
  5
1BD
330
5EE
100
AcDbEntity
  8
layer 4
100
AcDbLine
 10
0.0
 20
8.0
 30
0.0
 11
0.0
 21
10.0
 31
0.0
  0
LINE
  5
1BE
330
5EE
100
AcDbEntity
  8
layer 4
100
AcDbLine
 10
10.0
 20
8.0
 30
0.0
 11
10.0
 21
0.0
 31
0.0
  0
LINE
  5
1BF
330
5EE
100
AcDbEntity
  8
layer 4
100
AcDbLine
 10
8.0
 20
10.0
 30
0.0
 11
10.0
 21
10.0
 31
0.0
  0
LINE
  5
1C0
330
5EE
100
AcDbEntity
  8
layer 4
100
AcDbLine
 10
2.0
 20
10.0
 30
0.0
 11
2.0
 21
10.0
 31
0.0
  0
HATCH
  5
1C2
330
5EE
100
AcDbEntity
  8
layer 1
100
AcDbHatch
 10
0.0
 20
0.0
 30
0.0
210
0.0
220
0.0
230
1.0
  2
SOLID
 70
     1
 71
     0
 91
        1
 92
        0
 93
        4
 72
     1
 10
1.0
 20
6.0
 11
0.0
 21
6.0
 72
     1
 10
0.0
 20
6.0
 11
5.0
 21
10.0
 72
     1
 10
5.0
 20
10.0
 11
3.0
 21
6.0
 72
     1
 10
3.0
 20
6.0
 11
1.0
 21
6.0
 97
        0
 75
     0
 76
     1
 98
        0
  0
HATCH
  5
1C4
330
5EE
100
AcDbEntity
  8
layer 1
100
AcDbHatch
 10
0.0
 20
0.0
 30
0.0
210
0.0
220
0.0
230
1.0
  2
SOLID
 70
     1
 71
     0
 91
        1
 92
        0
 93
        4
 72
     1
 10
7.0
 20
6.0
 11
5.0
 21
10.0
 72
     1
 10
5.0
 20
10.0
 11
10.0
 21
6.0
 72
     1
 10
10.0
 20
6.0
 11
9.0
 21
6.0
 72
     1
 10
9.0
 20
6.0
 11
7.0
 21
6.0
 97
        0
 75
     0
 76
     1
 98
        0
  0
LINE
  5
1C5
330
5EE
100
AcDbEntity
  8
layer 4
100
AcDbLine
 10
8.0
 20
2.0
 30
0.0
 11
10.0
 21
0.0
 31
0.0
  0
LINE
  5
1C6
330
5EE
100
AcDbEntity
  8
layer 5
100
AcDbLine
 10
2.0
 20
2.0
 30
0.0
 11
5.0
 21
5.0
 31
0.0
  0
HATCH
  5
1CA
330
5EE
100
AcDbEntity
  8
layer 5
100
AcDbHatch
 10
0.0
 20
0.0
 30
0.0
210
0.0
220
0.0
230
1.0
  2
SOLID
 70
     1
 71
     0
 91
        2
 92
        0
 93
        5
 72
     1
 10
2.0
 20
2.0
 11
4.0
 21
2.0
 72
     1
 10
4.0
 20
2.0
 11
6.0
 21
2.0
 72
     1
 10
6.0
 20
2.0
 11
8.0
 21
2.0
 72
     1
 10
8.0
 20
2.0
 11
5.0
 21
5.0
 72
     1
 10
5.0
 20
5.0
 11
2.0
 21
2.0
 97
        0
 92
        0
 93
        2
 72
     1
 10
10.42053440751121
 20
7.844747833032917
 11
10.42053440751121
 21
7.844747833032917
 72
     1
 10
10.42053440751121
 20
7.844747833032917
 11
10.42053440751121
 21
7.844747833032917
 97
        0
 75
     0
 76
     1
 98
        0
  0
LINE
  5
1CB
330
5EE
100
AcDbEntity
  8
layer 5
100
AcDbLine
 10
14.0
 20
2.0
 30
0.0
 11
16.0
 21
2.0
 31
0.0
  0
LINE
  5
1CC
330
5EE
100
AcDbEntity
  8
layer 4
100
AcDbLine
 10
14.0
 20
2.0
 30
0.0
 11
14.0
 21
0.0
 31
0.0
  0
LINE
  5
1CD
330
5EE
100
AcDbEntity
  8
layer 4
100
AcDbLine
 10
16.0
 20
2.0
 30
0.0
 11
16.0
 21
0.0
 31
0.0
  0
LINE
  5
1CE
330
5EE
100
AcDbEntity
  8
layer 4
100
AcDbLine
 10
15.0
 20
7.0
 30
0.0
 11
14.0
 21
5.0
 31
0.0
  0
LINE
  5
1CF
330
5EE
100
AcDbEntity
  8
layer 4
100
AcDbLine
 10
14.0
 20
5.0
 30
0.0
 11
15.0
 21
6.0
 31
0.0
  0
LINE
  5
1D0
330
5EE
100
AcDbEntity
  8
layer 4
100
AcDbLine
 10
15.0
 20
6.0
 30
0.0
 11
16.0
 21
5.0
 31
0.0
  0
LINE
  5
1D1
330
5EE
100
AcDbEntity
  8
layer 4
100
AcDbLine
 10
16.0
 20
5.0
 30
0.0
 11
15.0
 21
7.0
 31
0.0
  0
LINE
  5
1D2
330
5EE
100
AcDbEntity
  8
layer 5
100
AcDbLine
 10
20.42053440751121
 20
7.844747833032917
 30
0.0
 11
20.42053440751121
 21
7.844747833032917
 31
0.0
  0
LINE
  5
1D3
330
5EE
100
AcDbEntity
  8
layer 4
100
AcDbLine
 10
19.0
 20
6.0
 30
0.0
 11
19.0
 21
6.0
 31
0.0
  0
HATCH
  5
1D4
330
5EE
100
AcDbEntity
  8
layer 4
100
AcDbHatch
 10
0.0
 20
0.0
 30
0.0
210
0.0
220
0.0
230
1.0
  2
SOLID
 70
     1
 71
     0
 91
        1
 92
        0
 93
        4
 72
     1
 10
15.0
 20
7.0
 11
14.0
 21
5.0
 72
     1
 10
14.0
 20
5.0
 11
15.0
 21
6.0
 72
     1
 10
15.0
 20
6.0
 11
16.0
 21
5.0
 72
     1
 10
16.0
 20
5.0
 11
15.0
 21
7.0
 97
        0
 75
     0
 76
     1
 98
        0
  0
LINE
  5
1D5
330
5EE
100
AcDbEntity
  8
layer 4
100
AcDbLine
 10
12.0
 20
10.0
 30
0.0
 11
18.0
 21
10.0
 31
0.0
  0
LINE
  5
1D6
330
5EE
100
AcDbEntity
  8
layer 5
100
AcDbLine
 10
16.0
 20
2.0
 30
0.0
 11
18.0
 21
2.0
 31
0.0
  0
LINE
  5
1D7
330
5EE
100
AcDbEntity
  8
layer 5
100
AcDbLine
 10
12.0
 20
2.0
 30
0.0
 11
14.0
 21
2.0
 31
0.0
  0
LINE
  5
1D8
330
5EE
100
AcDbEntity
  8
layer 4
100
AcDbLine
 10
14.0
 20
0.0
 30
0.0
 11
10.0
 21
0.0
 31
0.0
  0
LINE
  5
1D9
330
5EE
100
AcDbEntity
  8
layer 4
100
AcDbLine
 10
16.0
 20
0.0
 30
0.0
 11
14.0
 21
0.0
 31
0.0
  0
HATCH
  5
1DA
330
5EE
100
AcDbEntity
  8
0
100
AcDbHatch
 10
0.0
 20
0.0
 30
0.0
210
0.0
220
0.0
230
1.0
  2
SOLID
 70
     1
 71
     0
 91
        1
 92
        0
 93
        4
 72
     1
 10
14.0
 20
2.0
 11
14.0
 21
0.0
 72
     1
 10
14.0
 20
0.0
 11
16.0
 21
0.0
 72
     1
 10
16.0
 20
0.0
 11
16.0
 21
2.0
 72
     1
 10
16.0
 20
2.0
 11
14.0
 21
2.0
 97
        0
 75
     0
 76
     1
 98
        0
  0
LINE
  5
1DB
330
5EE
100
AcDbEntity
  8
layer 4
100
AcDbLine
 10
17.0
 20
6.0
 30
0.0
 11
15.0
 21
10.0
 31
0.0
  0
LINE
  5
1DC
330
5EE
100
AcDbEntity
  8
layer 4
100
AcDbLine
 10
19.0
 20
2.0
 30
0.0
 11
19.0
 21
2.0
 31
0.0
  0
LINE
  5
1DD
330
5EE
100
AcDbEntity
  8
layer 4
100
AcDbLine
 10
19.0
 20
2.0
 30
0.0
 11
17.0
 21
6.0
 31
0.0
  0
LINE
  5
1DE
330
5EE
100
AcDbEntity
  8
layer 4
100
AcDbLine
 10
19.0
 20
6.0
 30
0.0
 11
19.0
 21
2.0
 31
0.0
  0
LINE
  5
1DF
330
5EE
100
AcDbEntity
  8
layer 4
100
AcDbLine
 10
19.0
 20
6.0
 30
0.0
 11
17.0
 21
6.0
 31
0.0
  0
LINE
  5
1E0
330
5EE
100
AcDbEntity
  8
layer 5
100
AcDbLine
 10
20.42053440751121
 20
7.844747833032917
 30
0.0
 11
20.42053440751121
 21
7.844747833032917
 31
0.0
  0
LINE
  5
1E1
330
5EE
100
AcDbEntity
  8
layer 4
100
AcDbLine
 10
11.0
 20
2.0
 30
0.0
 11
11.0
 21
2.0
 31
0.0
  0
LINE
  5
1E2
330
5EE
100
AcDbEntity
  8
layer 4
100
AcDbLine
 10
13.0
 20
6.0
 30
0.0
 11
11.0
 21
2.0
 31
0.0
  0
LINE
  5
1E3
330
5EE
100
AcDbEntity
  8
layer 4
100
AcDbLine
 10
9.420534407511212
 20
8.844747833032917
 30
0.0
 11
9.420534407511212
 21
8.844747833032917
 31
0.0
  0
LINE
  5
1E4
330
5EE
100
AcDbEntity
  8
layer 4
100
AcDbLine
 10
11.0
 20
2.0
 30
0.0
 11
10.0
 21
0.0
 31
0.0
  0
HATCH
  5
1E5
330
5EE
100
AcDbEntity
  8
layer 2
100
AcDbHatch
 10
0.0
 20
0.0
 30
0.0
210
0.0
220
0.0
230
1.0
  2
SOLID
 70
     1
 71
     0
 91
        1
 92
        0
 93
        5
 72
     1
 10
19.0
 20
2.0
 11
19.0
 21
2.0
 72
     1
 10
19.0
 20
2.0
 11
17.0
 21
6.0
 72
     1
 10
17.0
 20
6.0
 11
19.0
 21
6.0
 72
     1
 10
19.0
 20
6.0
 11
19.0
 21
6.0
 72
     1
 10
19.0
 20
6.0
 11
19.0
 21
2.0
 97
        0
 75
     0
 76
     1
 98
        0
  0
LINE
  5
1E6
330
5EE
100
AcDbEntity
  8
layer 4
100
AcDbLine
 10
11.0
 20
6.0
 30
0.0
 11
11.0
 21
2.0
 31
0.0
  0
LINE
  5
1E7
330
5EE
100
AcDbEntity
  8
layer 4
100
AcDbLine
 10
11.0
 20
6.0
 30
0.0
 11
10.0
 21
6.0
 31
0.0
  0
HATCH
  5
1E8
330
5EE
100
AcDbEntity
  8
0
 62
    18
420
        0
100
AcDbHatch
 10
0.0
 20
0.0
 30
0.0
210
0.0
220
0.0
230
1.0
  2
SOLID
 70
     1
 71
     0
 91
        1
 92
        0
 93
        5
 72
     1
 10
11.0
 20
6.0
 11
11.0
 21
6.0
 72
     1
 10
11.0
 20
6.0
 11
11.0
 21
6.0
 72
     1
 10
11.0
 20
6.0
 11
13.0
 21
6.0
 72
     1
 10
13.0
 20
6.0
 11
11.0
 21
2.0
 72
     1
 10
11.0
 20
2.0
 11
11.0
 21
6.0
 97
        0
 75
     0
 76
     1
 98
        0
  0
LINE
  5
1E9
330
5EE
100
AcDbEntity
  8
layer 4
100
AcDbLine
 10
10.0
 20
8.0
 30
0.0
 11
10.0
 21
10.0
 31
0.0
  0
LINE
  5
1EA
330
5EE
100
AcDbEntity
  8
layer 4
100
AcDbLine
 10
20.0
 20
8.0
 30
0.0
 11
20.0
 21
0.0
 31
0.0
  0
LINE
  5
1EB
330
5EE
100
AcDbEntity
  8
layer 4
100
AcDbLine
 10
18.0
 20
10.0
 30
0.0
 11
20.0
 21
10.0
 31
0.0
  0
LINE
  5
1EC
330
5EE
100
AcDbEntity
  8
layer 4
100
AcDbLine
 10
12.0
 20
10.0
 30
0.0
 11
12.0
 21
10.0
 31
0.0
  0
HATCH
  5
1ED
330
5EE
100
AcDbEntity
  8
layer 1
100
AcDbHatch
 10
0.0
 20
0.0
 30
0.0
210
0.0
220
0.0
230
1.0
  2
SOLID
 70
     1
 71
     0
 91
        1
 92
        0
 93
        4
 72
     1
 10
11.0
 20
6.0
 11
10.0
 21
6.0
 72
     1
 10
10.0
 20
6.0
 11
15.0
 21
10.0
 72
     1
 10
15.0
 20
10.0
 11
13.0
 21
6.0
 72
     1
 10
13.0
 20
6.0
 11
11.0
 21
6.0
 97
        0
 75
     0
 76
     1
 98
        0
  0
HATCH
  5
1EE
330
5EE
100
AcDbEntity
  8
layer 1
100
AcDbHatch
 10
0.0
 20
0.0
 30
0.0
210
0.0
220
0.0
230
1.0
  2
SOLID
 70
     1
 71
     0
 91
        1
 92
        0
 93
        4
 72
     1
 10
17.0
 20
6.0
 11
15.0
 21
10.0
 72
     1
 10
15.0
 20
10.0
 11
20.0
 21
6.0
 72
     1
 10
20.0
 20
6.0
 11
19.0
 21
6.0
 72
     1
 10
19.0
 20
6.0
 11
17.0
 21
6.0
 97
        0
 75
     0
 76
     1
 98
        0
  0
LINE
  5
1EF
330
5EE
100
AcDbEntity
  8
layer 4
100
AcDbLine
 10
18.0
 20
2.0
 30
0.0
 11
20.0
 21
0.0
 31
0.0
  0
LINE
  5
1F0
330
5EE
100
AcDbEntity
  8
layer 5
100
AcDbLine
 10
12.0
 20
2.0
 30
0.0
 11
15.0
 21
5.0
 31
0.0
  0
HATCH
  5
1F1
330
5EE
100
AcDbEntity
  8
layer 5
100
AcDbHatch
 10
0.0
 20
0.0
 30
0.0
210
0.0
220
0.0
230
1.0
  2
SOLID
 70
     1
 71
     0
 91
        2
 92
        0
 93
        5
 72
     1
 10
12.0
 20
2.0
 11
14.0
 21
2.0
 72
     1
 10
14.0
 20
2.0
 11
16.0
 21
2.0
 72
     1
 10
16.0
 20
2.0
 11
18.0
 21
2.0
 72
     1
 10
18.0
 20
2.0
 11
15.0
 21
5.0
 72
     1
 10
15.0
 20
5.0
 11
12.0
 21
2.0
 97
        0
 92
        0
 93
        2
 72
     1
 10
20.42053440751121
 20
7.844747833032917
 11
20.42053440751121
 21
7.844747833032917
 72
     1
 10
20.42053440751121
 20
7.844747833032917
 11
20.42053440751121
 21
7.844747833032917
 97
        0
 75
     0
 76
     1
 98
        0
  0
LINE
  5
1F2
330
5EE
100
AcDbEntity
  8
layer 4
100
AcDbLine
 10
10.0
 20
0.0
 30
0.0
 11
10.0
 21
8.0
 31
0.0
  0
LINE
  5
1F3
330
5EE
100
AcDbEntity
  8
layer 4
100
AcDbLine
 10
10.0
 20
10.0
 30
0.0
 11
12.0
 21
10.0
 31
0.0
  0
LINE
  5
1F4
330
5EE
100
AcDbEntity
  8
layer 4
100
AcDbLine
 10
20.0
 20
10.0
 30
0.0
 11
20.0
 21
8.0
 31
0.0
  0
LINE
  5
1F5
330
5EE
100
AcDbEntity
  8
layer 4
100
AcDbLine
 10
20.0
 20
0.0
 30
0.0
 11
16.0
 21
0.0
 31
0.0
  0
LINE
  5
1F6
330
5EE
100
AcDbEntity
  8
layer 4
100
AcDbLine
 10
10.0
 20
0.0
 30
0.0
 11
12.0
 21
2.0
 31
0.0
  0
LINE
  5
1F7
330
5EE
100
AcDbEntity
  8
layer 5
100
AcDbLine
 10
15.0
 20
5.0
 30
0.0
 11
18.0
 21
2.0
 31
0.0
  0
LINE
  5
1F8
330
5EE
100
AcDbEntity
  8
layer 4
100
AcDbLine
 10
20.0
 20
0.0
 30
0.0
 11
19.0
 21
2.0
 31
0.0
  0
LINE
  5
1F9
330
5EE
100
AcDbEntity
  8
layer 4
100
AcDbLine
 10
15.0
 20
10.0
 30
0.0
 11
13.0
 21
6.0
 31
0.0
  0
LINE
  5
1FA
330
5EE
100
AcDbEntity
  8
layer 4
100
AcDbLine
 10
10.0
 20
6.0
 30
0.0
 11
15.0
 21
10.0
 31
0.0
  0
LINE
  5
1FB
330
5EE
100
AcDbEntity
  8
layer 4
100
AcDbLine
 10
15.0
 20
10.0
 30
0.0
 11
20.0
 21
6.0
 31
0.0
  0
LINE
  5
1FC
330
5EE
100
AcDbEntity
  8
layer 4
100
AcDbLine
 10
20.0
 20
6.0
 30
0.0
 11
19.0
 21
6.0
 31
0.0
  0
LINE
  5
1FD
330
5EE
100
AcDbEntity
  8
layer 4
100
AcDbLine
 10
13.0
 20
6.0
 30
0.0
 11
11.0
 21
6.0
 31
0.0
  0
LINE
  5
1FE
330
5EE
100
AcDbEntity
  8
layer 5
100
AcDbLine
 10
24.0
 20
2.0
 30
0.0
 11
26.0
 21
2.0
 31
0.0
  0
LINE
  5
1FF
330
5EE
100
AcDbEntity
  8
layer 4
100
AcDbLine
 10
24.0
 20
2.0
 30
0.0
 11
24.0
 21
0.0
 31
0.0
  0
LINE
  5
200
330
5EE
100
AcDbEntity
  8
layer 4
100
AcDbLine
 10
26.0
 20
2.0
 30
0.0
 11
26.0
 21
0.0
 31
0.0
  0
LINE
  5
201
330
5EE
100
AcDbEntity
  8
layer 4
100
AcDbLine
 10
25.0
 20
7.0
 30
0.0
 11
24.0
 21
5.0
 31
0.0
  0
LINE
  5
202
330
5EE
100
AcDbEntity
  8
layer 4
100
AcDbLine
 10
24.0
 20
5.0
 30
0.0
 11
25.0
 21
6.0
 31
0.0
  0
LINE
  5
203
330
5EE
100
AcDbEntity
  8
layer 4
100
AcDbLine
 10
25.0
 20
6.0
 30
0.0
 11
26.0
 21
5.0
 31
0.0
  0
LINE
  5
204
330
5EE
100
AcDbEntity
  8
layer 4
100
AcDbLine
 10
26.0
 20
5.0
 30
0.0
 11
25.0
 21
7.0
 31
0.0
  0
LINE
  5
205
330
5EE
100
AcDbEntity
  8
layer 5
100
AcDbLine
 10
30.42053440751121
 20
7.844747833032917
 30
0.0
 11
30.42053440751121
 21
7.844747833032917
 31
0.0
  0
LINE
  5
206
330
5EE
100
AcDbEntity
  8
layer 4
100
AcDbLine
 10
29.0
 20
6.0
 30
0.0
 11
29.0
 21
6.0
 31
0.0
  0
HATCH
  5
207
330
5EE
100
AcDbEntity
  8
layer 4
100
AcDbHatch
 10
0.0
 20
0.0
 30
0.0
210
0.0
220
0.0
230
1.0
  2
SOLID
 70
     1
 71
     0
 91
        1
 92
        0
 93
        4
 72
     1
 10
25.0
 20
7.0
 11
24.0
 21
5.0
 72
     1
 10
24.0
 20
5.0
 11
25.0
 21
6.0
 72
     1
 10
25.0
 20
6.0
 11
26.0
 21
5.0
 72
     1
 10
26.0
 20
5.0
 11
25.0
 21
7.0
 97
        0
 75
     0
 76
     1
 98
        0
  0
LINE
  5
208
330
5EE
100
AcDbEntity
  8
layer 4
100
AcDbLine
 10
22.0
 20
10.0
 30
0.0
 11
28.0
 21
10.0
 31
0.0
  0
LINE
  5
209
330
5EE
100
AcDbEntity
  8
layer 5
100
AcDbLine
 10
26.0
 20
2.0
 30
0.0
 11
28.0
 21
2.0
 31
0.0
  0
LINE
  5
20A
330
5EE
100
AcDbEntity
  8
layer 5
100
AcDbLine
 10
22.0
 20
2.0
 30
0.0
 11
24.0
 21
2.0
 31
0.0
  0
LINE
  5
20B
330
5EE
100
AcDbEntity
  8
layer 4
100
AcDbLine
 10
24.0
 20
0.0
 30
0.0
 11
20.0
 21
0.0
 31
0.0
  0
LINE
  5
20C
330
5EE
100
AcDbEntity
  8
layer 4
100
AcDbLine
 10
26.0
 20
0.0
 30
0.0
 11
24.0
 21
0.0
 31
0.0
  0
HATCH
  5
20D
330
5EE
100
AcDbEntity
  8
0
100
AcDbHatch
 10
0.0
 20
0.0
 30
0.0
210
0.0
220
0.0
230
1.0
  2
SOLID
 70
     1
 71
     0
 91
        1
 92
        0
 93
        4
 72
     1
 10
24.0
 20
2.0
 11
24.0
 21
0.0
 72
     1
 10
24.0
 20
0.0
 11
26.0
 21
0.0
 72
     1
 10
26.0
 20
0.0
 11
26.0
 21
2.0
 72
     1
 10
26.0
 20
2.0
 11
24.0
 21
2.0
 97
        0
 75
     0
 76
     1
 98
        0
  0
LINE
  5
20E
330
5EE
100
AcDbEntity
  8
layer 4
100
AcDbLine
 10
27.0
 20
6.0
 30
0.0
 11
25.0
 21
10.0
 31
0.0
  0
LINE
  5
20F
330
5EE
100
AcDbEntity
  8
layer 4
100
AcDbLine
 10
29.0
 20
2.0
 30
0.0
 11
29.0
 21
2.0
 31
0.0
  0
LINE
  5
210
330
5EE
100
AcDbEntity
  8
layer 4
100
AcDbLine
 10
29.0
 20
2.0
 30
0.0
 11
27.0
 21
6.0
 31
0.0
  0
LINE
  5
211
330
5EE
100
AcDbEntity
  8
layer 4
100
AcDbLine
 10
29.0
 20
6.0
 30
0.0
 11
29.0
 21
2.0
 31
0.0
  0
LINE
  5
212
330
5EE
100
AcDbEntity
  8
layer 4
100
AcDbLine
 10
29.0
 20
6.0
 30
0.0
 11
27.0
 21
6.0
 31
0.0
  0
LINE
  5
213
330
5EE
100
AcDbEntity
  8
layer 5
100
AcDbLine
 10
30.42053440751121
 20
7.844747833032917
 30
0.0
 11
30.42053440751121
 21
7.844747833032917
 31
0.0
  0
LINE
  5
214
330
5EE
100
AcDbEntity
  8
layer 4
100
AcDbLine
 10
21.0
 20
2.0
 30
0.0
 11
21.0
 21
2.0
 31
0.0
  0
LINE
  5
215
330
5EE
100
AcDbEntity
  8
layer 4
100
AcDbLine
 10
23.0
 20
6.0
 30
0.0
 11
21.0
 21
2.0
 31
0.0
  0
LINE
  5
216
330
5EE
100
AcDbEntity
  8
layer 4
100
AcDbLine
 10
19.42053440751121
 20
8.844747833032917
 30
0.0
 11
19.42053440751121
 21
8.844747833032917
 31
0.0
  0
LINE
  5
217
330
5EE
100
AcDbEntity
  8
layer 4
100
AcDbLine
 10
21.0
 20
2.0
 30
0.0
 11
20.0
 21
0.0
 31
0.0
  0
HATCH
  5
218
330
5EE
100
AcDbEntity
  8
layer 2
100
AcDbHatch
 10
0.0
 20
0.0
 30
0.0
210
0.0
220
0.0
230
1.0
  2
SOLID
 70
     1
 71
     0
 91
        1
 92
        0
 93
        5
 72
     1
 10
29.0
 20
2.0
 11
29.0
 21
2.0
 72
     1
 10
29.0
 20
2.0
 11
27.0
 21
6.0
 72
     1
 10
27.0
 20
6.0
 11
29.0
 21
6.0
 72
     1
 10
29.0
 20
6.0
 11
29.0
 21
6.0
 72
     1
 10
29.0
 20
6.0
 11
29.0
 21
2.0
 97
        0
 75
     0
 76
     1
 98
        0
  0
LINE
  5
219
330
5EE
100
AcDbEntity
  8
layer 4
100
AcDbLine
 10
21.0
 20
6.0
 30
0.0
 11
21.0
 21
2.0
 31
0.0
  0
LINE
  5
21A
330
5EE
100
AcDbEntity
  8
layer 4
100
AcDbLine
 10
21.0
 20
6.0
 30
0.0
 11
20.0
 21
6.0
 31
0.0
  0
HATCH
  5
21B
330
5EE
100
AcDbEntity
  8
0
 62
    18
420
        0
100
AcDbHatch
 10
0.0
 20
0.0
 30
0.0
210
0.0
220
0.0
230
1.0
  2
SOLID
 70
     1
 71
     0
 91
        1
 92
        0
 93
        5
 72
     1
 10
21.0
 20
6.0
 11
21.0
 21
6.0
 72
     1
 10
21.0
 20
6.0
 11
21.0
 21
6.0
 72
     1
 10
21.0
 20
6.0
 11
23.0
 21
6.0
 72
     1
 10
23.0
 20
6.0
 11
21.0
 21
2.0
 72
     1
 10
21.0
 20
2.0
 11
21.0
 21
6.0
 97
        0
 75
     0
 76
     1
 98
        0
  0
LINE
  5
21C
330
5EE
100
AcDbEntity
  8
layer 4
100
AcDbLine
 10
20.0
 20
8.0
 30
0.0
 11
20.0
 21
10.0
 31
0.0
  0
LINE
  5
21D
330
5EE
100
AcDbEntity
  8
layer 4
100
AcDbLine
 10
30.0
 20
8.0
 30
0.0
 11
30.0
 21
0.0
 31
0.0
  0
LINE
  5
21E
330
5EE
100
AcDbEntity
  8
layer 4
100
AcDbLine
 10
28.0
 20
10.0
 30
0.0
 11
30.0
 21
10.0
 31
0.0
  0
LINE
  5
21F
330
5EE
100
AcDbEntity
  8
layer 4
100
AcDbLine
 10
22.0
 20
10.0
 30
0.0
 11
22.0
 21
10.0
 31
0.0
  0
HATCH
  5
220
330
5EE
100
AcDbEntity
  8
layer 1
100
AcDbHatch
 10
0.0
 20
0.0
 30
0.0
210
0.0
220
0.0
230
1.0
  2
SOLID
 70
     1
 71
     0
 91
        1
 92
        0
 93
        4
 72
     1
 10
21.0
 20
6.0
 11
20.0
 21
6.0
 72
     1
 10
20.0
 20
6.0
 11
25.0
 21
10.0
 72
     1
 10
25.0
 20
10.0
 11
23.0
 21
6.0
 72
     1
 10
23.0
 20
6.0
 11
21.0
 21
6.0
 97
        0
 75
     0
 76
     1
 98
        0
  0
HATCH
  5
221
330
5EE
100
AcDbEntity
  8
layer 1
100
AcDbHatch
 10
0.0
 20
0.0
 30
0.0
210
0.0
220
0.0
230
1.0
  2
SOLID
 70
     1
 71
     0
 91
        1
 92
        0
 93
        4
 72
     1
 10
27.0
 20
6.0
 11
25.0
 21
10.0
 72
     1
 10
25.0
 20
10.0
 11
30.0
 21
6.0
 72
     1
 10
30.0
 20
6.0
 11
29.0
 21
6.0
 72
     1
 10
29.0
 20
6.0
 11
27.0
 21
6.0
 97
        0
 75
     0
 76
     1
 98
        0
  0
LINE
  5
222
330
5EE
100
AcDbEntity
  8
layer 4
100
AcDbLine
 10
28.0
 20
2.0
 30
0.0
 11
30.0
 21
0.0
 31
0.0
  0
LINE
  5
223
330
5EE
100
AcDbEntity
  8
layer 5
100
AcDbLine
 10
22.0
 20
2.0
 30
0.0
 11
25.0
 21
5.0
 31
0.0
  0
HATCH
  5
224
330
5EE
100
AcDbEntity
  8
layer 5
100
AcDbHatch
 10
0.0
 20
0.0
 30
0.0
210
0.0
220
0.0
230
1.0
  2
SOLID
 70
     1
 71
     0
 91
        2
 92
        0
 93
        5
 72
     1
 10
22.0
 20
2.0
 11
24.0
 21
2.0
 72
     1
 10
24.0
 20
2.0
 11
26.0
 21
2.0
 72
     1
 10
26.0
 20
2.0
 11
28.0
 21
2.0
 72
     1
 10
28.0
 20
2.0
 11
25.0
 21
5.0
 72
     1
 10
25.0
 20
5.0
 11
22.0
 21
2.0
 97
        0
 92
        0
 93
        2
 72
     1
 10
30.42053440751121
 20
7.844747833032917
 11
30.42053440751121
 21
7.844747833032917
 72
     1
 10
30.42053440751121
 20
7.844747833032917
 11
30.42053440751121
 21
7.844747833032917
 97
        0
 75
     0
 76
     1
 98
        0
  0
LINE
  5
225
330
5EE
100
AcDbEntity
  8
layer 4
100
AcDbLine
 10
20.0
 20
0.0
 30
0.0
 11
20.0
 21
8.0
 31
0.0
  0
LINE
  5
226
330
5EE
100
AcDbEntity
  8
layer 4
100
AcDbLine
 10
20.0
 20
10.0
 30
0.0
 11
22.0
 21
10.0
 31
0.0
  0
LINE
  5
227
330
5EE
100
AcDbEntity
  8
layer 4
100
AcDbLine
 10
30.0
 20
10.0
 30
0.0
 11
30.0
 21
8.0
 31
0.0
  0
LINE
  5
228
330
5EE
100
AcDbEntity
  8
layer 4
100
AcDbLine
 10
30.0
 20
0.0
 30
0.0
 11
26.0
 21
0.0
 31
0.0
  0
LINE
  5
229
330
5EE
100
AcDbEntity
  8
layer 4
100
AcDbLine
 10
20.0
 20
0.0
 30
0.0
 11
22.0
 21
2.0
 31
0.0
  0
LINE
  5
22A
330
5EE
100
AcDbEntity
  8
layer 5
100
AcDbLine
 10
25.0
 20
5.0
 30
0.0
 11
28.0
 21
2.0
 31
0.0
  0
LINE
  5
22B
330
5EE
100
AcDbEntity
  8
layer 4
100
AcDbLine
 10
30.0
 20
0.0
 30
0.0
 11
29.0
 21
2.0
 31
0.0
  0
LINE
  5
22C
330
5EE
100
AcDbEntity
  8
layer 4
100
AcDbLine
 10
25.0
 20
10.0
 30
0.0
 11
23.0
 21
6.0
 31
0.0
  0
LINE
  5
22D
330
5EE
100
AcDbEntity
  8
layer 4
100
AcDbLine
 10
20.0
 20
6.0
 30
0.0
 11
25.0
 21
10.0
 31
0.0
  0
LINE
  5
22E
330
5EE
100
AcDbEntity
  8
layer 4
100
AcDbLine
 10
25.0
 20
10.0
 30
0.0
 11
30.0
 21
6.0
 31
0.0
  0
LINE
  5
22F
330
5EE
100
AcDbEntity
  8
layer 4
100
AcDbLine
 10
30.0
 20
6.0
 30
0.0
 11
29.0
 21
6.0
 31
0.0
  0
LINE
  5
230
330
5EE
100
AcDbEntity
  8
layer 4
100
AcDbLine
 10
23.0
 20
6.0
 30
0.0
 11
21.0
 21
6.0
 31
0.0
  0
LINE
  5
231
330
5EE
100
AcDbEntity
  8
layer 5
100
AcDbLine
 10
34.0
 20
2.0
 30
0.0
 11
36.0
 21
2.0
 31
0.0
  0
LINE
  5
232
330
5EE
100
AcDbEntity
  8
layer 4
100
AcDbLine
 10
34.0
 20
2.0
 30
0.0
 11
34.0
 21
0.0
 31
0.0
  0
LINE
  5
233
330
5EE
100
AcDbEntity
  8
layer 4
100
AcDbLine
 10
36.0
 20
2.0
 30
0.0
 11
36.0
 21
0.0
 31
0.0
  0
LINE
  5
234
330
5EE
100
AcDbEntity
  8
layer 4
100
AcDbLine
 10
35.0
 20
7.0
 30
0.0
 11
34.0
 21
5.0
 31
0.0
  0
LINE
  5
235
330
5EE
100
AcDbEntity
  8
layer 4
100
AcDbLine
 10
34.0
 20
5.0
 30
0.0
 11
35.0
 21
6.0
 31
0.0
  0
LINE
  5
236
330
5EE
100
AcDbEntity
  8
layer 4
100
AcDbLine
 10
35.0
 20
6.0
 30
0.0
 11
36.0
 21
5.0
 31
0.0
  0
LINE
  5
237
330
5EE
100
AcDbEntity
  8
layer 4
100
AcDbLine
 10
36.0
 20
5.0
 30
0.0
 11
35.0
 21
7.0
 31
0.0
  0
LINE
  5
239
330
5EE
100
AcDbEntity
  8
layer 4
100
AcDbLine
 10
39.0
 20
6.0
 30
0.0
 11
39.0
 21
6.0
 31
0.0
  0
HATCH
  5
23A
330
5EE
100
AcDbEntity
  8
layer 4
100
AcDbHatch
 10
0.0
 20
0.0
 30
0.0
210
0.0
220
0.0
230
1.0
  2
SOLID
 70
     1
 71
     0
 91
        1
 92
        0
 93
        4
 72
     1
 10
35.0
 20
7.0
 11
34.0
 21
5.0
 72
     1
 10
34.0
 20
5.0
 11
35.0
 21
6.0
 72
     1
 10
35.0
 20
6.0
 11
36.0
 21
5.0
 72
     1
 10
36.0
 20
5.0
 11
35.0
 21
7.0
 97
        0
 75
     0
 76
     1
 98
        0
  0
LINE
  5
23B
330
5EE
100
AcDbEntity
  8
layer 4
100
AcDbLine
 10
32.0
 20
10.0
 30
0.0
 11
38.0
 21
10.0
 31
0.0
  0
LINE
  5
23C
330
5EE
100
AcDbEntity
  8
layer 5
100
AcDbLine
 10
36.0
 20
2.0
 30
0.0
 11
38.0
 21
2.0
 31
0.0
  0
LINE
  5
23D
330
5EE
100
AcDbEntity
  8
layer 5
100
AcDbLine
 10
32.0
 20
2.0
 30
0.0
 11
34.0
 21
2.0
 31
0.0
  0
LINE
  5
23E
330
5EE
100
AcDbEntity
  8
layer 4
100
AcDbLine
 10
34.0
 20
0.0
 30
0.0
 11
30.0
 21
0.0
 31
0.0
  0
LINE
  5
23F
330
5EE
100
AcDbEntity
  8
layer 4
100
AcDbLine
 10
36.0
 20
0.0
 30
0.0
 11
34.0
 21
0.0
 31
0.0
  0
HATCH
  5
240
330
5EE
100
AcDbEntity
  8
0
100
AcDbHatch
 10
0.0
 20
0.0
 30
0.0
210
0.0
220
0.0
230
1.0
  2
SOLID
 70
     1
 71
     0
 91
        1
 92
        0
 93
        4
 72
     1
 10
34.0
 20
2.0
 11
34.0
 21
0.0
 72
     1
 10
34.0
 20
0.0
 11
36.0
 21
0.0
 72
     1
 10
36.0
 20
0.0
 11
36.0
 21
2.0
 72
     1
 10
36.0
 20
2.0
 11
34.0
 21
2.0
 97
        0
 75
     0
 76
     1
 98
        0
  0
LINE
  5
241
330
5EE
100
AcDbEntity
  8
layer 4
100
AcDbLine
 10
37.0
 20
6.0
 30
0.0
 11
35.0
 21
10.0
 31
0.0
  0
LINE
  5
242
330
5EE
100
AcDbEntity
  8
layer 4
100
AcDbLine
 10
39.0
 20
2.0
 30
0.0
 11
39.0
 21
2.0
 31
0.0
  0
LINE
  5
243
330
5EE
100
AcDbEntity
  8
layer 4
100
AcDbLine
 10
39.0
 20
2.0
 30
0.0
 11
37.0
 21
6.0
 31
0.0
  0
LINE
  5
244
330
5EE
100
AcDbEntity
  8
layer 4
100
AcDbLine
 10
39.0
 20
6.0
 30
0.0
 11
39.0
 21
2.0
 31
0.0
  0
LINE
  5
245
330
5EE
100
AcDbEntity
  8
layer 4
100
AcDbLine
 10
39.0
 20
6.0
 30
0.0
 11
37.0
 21
6.0
 31
0.0
  0
LINE
  5
247
330
5EE
100
AcDbEntity
  8
layer 4
100
AcDbLine
 10
31.0
 20
2.0
 30
0.0
 11
31.0
 21
2.0
 31
0.0
  0
LINE
  5
248
330
5EE
100
AcDbEntity
  8
layer 4
100
AcDbLine
 10
33.0
 20
6.0
 30
0.0
 11
31.0
 21
2.0
 31
0.0
  0
LINE
  5
249
330
5EE
100
AcDbEntity
  8
layer 4
100
AcDbLine
 10
29.42053440751121
 20
8.844747833032917
 30
0.0
 11
29.42053440751121
 21
8.844747833032917
 31
0.0
  0
LINE
  5
24A
330
5EE
100
AcDbEntity
  8
layer 4
100
AcDbLine
 10
31.0
 20
2.0
 30
0.0
 11
30.0
 21
0.0
 31
0.0
  0
HATCH
  5
24B
330
5EE
100
AcDbEntity
  8
layer 2
100
AcDbHatch
 10
0.0
 20
0.0
 30
0.0
210
0.0
220
0.0
230
1.0
  2
SOLID
 70
     1
 71
     0
 91
        1
 92
        0
 93
        5
 72
     1
 10
39.0
 20
2.0
 11
39.0
 21
2.0
 72
     1
 10
39.0
 20
2.0
 11
37.0
 21
6.0
 72
     1
 10
37.0
 20
6.0
 11
39.0
 21
6.0
 72
     1
 10
39.0
 20
6.0
 11
39.0
 21
6.0
 72
     1
 10
39.0
 20
6.0
 11
39.0
 21
2.0
 97
        0
 75
     0
 76
     1
 98
        0
  0
LINE
  5
24C
330
5EE
100
AcDbEntity
  8
layer 4
100
AcDbLine
 10
31.0
 20
6.0
 30
0.0
 11
31.0
 21
2.0
 31
0.0
  0
LINE
  5
24D
330
5EE
100
AcDbEntity
  8
layer 4
100
AcDbLine
 10
31.0
 20
6.0
 30
0.0
 11
30.0
 21
6.0
 31
0.0
  0
HATCH
  5
24E
330
5EE
100
AcDbEntity
  8
0
 62
    18
420
        0
100
AcDbHatch
 10
0.0
 20
0.0
 30
0.0
210
0.0
220
0.0
230
1.0
  2
SOLID
 70
     1
 71
     0
 91
        1
 92
        0
 93
        5
 72
     1
 10
31.0
 20
6.0
 11
31.0
 21
6.0
 72
     1
 10
31.0
 20
6.0
 11
31.0
 21
6.0
 72
     1
 10
31.0
 20
6.0
 11
33.0
 21
6.0
 72
     1
 10
33.0
 20
6.0
 11
31.0
 21
2.0
 72
     1
 10
31.0
 20
2.0
 11
31.0
 21
6.0
 97
        0
 75
     0
 76
     1
 98
        0
  0
LINE
  5
24F
330
5EE
100
AcDbEntity
  8
layer 4
100
AcDbLine
 10
30.0
 20
8.0
 30
0.0
 11
30.0
 21
10.0
 31
0.0
  0
LINE
  5
250
330
5EE
100
AcDbEntity
  8
layer 4
100
AcDbLine
 10
40.0
 20
8.0
 30
0.0
 11
40.0
 21
0.0
 31
0.0
  0
LINE
  5
251
330
5EE
100
AcDbEntity
  8
layer 4
100
AcDbLine
 10
38.0
 20
10.0
 30
0.0
 11
40.0
 21
10.0
 31
0.0
  0
LINE
  5
252
330
5EE
100
AcDbEntity
  8
layer 4
100
AcDbLine
 10
32.0
 20
10.0
 30
0.0
 11
32.0
 21
10.0
 31
0.0
  0
HATCH
  5
253
330
5EE
100
AcDbEntity
  8
layer 1
100
AcDbHatch
 10
0.0
 20
0.0
 30
0.0
210
0.0
220
0.0
230
1.0
  2
SOLID
 70
     1
 71
     0
 91
        1
 92
        0
 93
        4
 72
     1
 10
31.0
 20
6.0
 11
30.0
 21
6.0
 72
     1
 10
30.0
 20
6.0
 11
35.0
 21
10.0
 72
     1
 10
35.0
 20
10.0
 11
33.0
 21
6.0
 72
     1
 10
33.0
 20
6.0
 11
31.0
 21
6.0
 97
        0
 75
     0
 76
     1
 98
        0
  0
HATCH
  5
254
330
5EE
100
AcDbEntity
  8
layer 1
100
AcDbHatch
 10
0.0
 20
0.0
 30
0.0
210
0.0
220
0.0
230
1.0
  2
SOLID
 70
     1
 71
     0
 91
        1
 92
        0
 93
        4
 72
     1
 10
37.0
 20
6.0
 11
35.0
 21
10.0
 72
     1
 10
35.0
 20
10.0
 11
40.0
 21
6.0
 72
     1
 10
40.0
 20
6.0
 11
39.0
 21
6.0
 72
     1
 10
39.0
 20
6.0
 11
37.0
 21
6.0
 97
        0
 75
     0
 76
     1
 98
        0
  0
LINE
  5
255
330
5EE
100
AcDbEntity
  8
layer 4
100
AcDbLine
 10
38.0
 20
2.0
 30
0.0
 11
40.0
 21
0.0
 31
0.0
  0
LINE
  5
256
330
5EE
100
AcDbEntity
  8
layer 5
100
AcDbLine
 10
32.0
 20
2.0
 30
0.0
 11
35.0
 21
5.0
 31
0.0
  0
HATCH
  5
257
330
5EE
100
AcDbEntity
  8
layer 5
100
AcDbHatch
 10
0.0
 20
0.0
 30
0.0
210
0.0
220
0.0
230
1.0
  2
SOLID
 70
     1
 71
     0
 91
        2
 92
        0
 93
        5
 72
     1
 10
32.0
 20
2.0
 11
34.0
 21
2.0
 72
     1
 10
34.0
 20
2.0
 11
36.0
 21
2.0
 72
     1
 10
36.0
 20
2.0
 11
38.0
 21
2.0
 72
     1
 10
38.0
 20
2.0
 11
35.0
 21
5.0
 72
     1
 10
35.0
 20
5.0
 11
32.0
 21
2.0
 97
        0
 92
        0
 93
        2
 72
     1
 10
40.42053440751121
 20
7.844747833032917
 11
40.42053440751121
 21
7.844747833032917
 72
     1
 10
40.42053440751121
 20
7.844747833032917
 11
40.42053440751121
 21
7.844747833032917
 97
        0
 75
     0
 76
     1
 98
        0
  0
LINE
  5
258
330
5EE
100
AcDbEntity
  8
layer 4
100
AcDbLine
 10
30.0
 20
0.0
 30
0.0
 11
30.0
 21
8.0
 31
0.0
  0
LINE
  5
259
330
5EE
100
AcDbEntity
  8
layer 4
100
AcDbLine
 10
30.0
 20
10.0
 30
0.0
 11
32.0
 21
10.0
 31
0.0
  0
LINE
  5
25A
330
5EE
100
AcDbEntity
  8
layer 4
100
AcDbLine
 10
40.0
 20
10.0
 30
0.0
 11
40.0
 21
8.0
 31
0.0
  0
LINE
  5
25B
330
5EE
100
AcDbEntity
  8
layer 4
100
AcDbLine
 10
40.0
 20
0.0
 30
0.0
 11
36.0
 21
0.0
 31
0.0
  0
LINE
  5
25C
330
5EE
100
AcDbEntity
  8
layer 4
100
AcDbLine
 10
30.0
 20
0.0
 30
0.0
 11
32.0
 21
2.0
 31
0.0
  0
LINE
  5
25D
330
5EE
100
AcDbEntity
  8
layer 5
100
AcDbLine
 10
35.0
 20
5.0
 30
0.0
 11
38.0
 21
2.0
 31
0.0
  0
LINE
  5
25E
330
5EE
100
AcDbEntity
  8
layer 4
100
AcDbLine
 10
40.0
 20
0.0
 30
0.0
 11
39.0
 21
2.0
 31
0.0
  0
LINE
  5
25F
330
5EE
100
AcDbEntity
  8
layer 4
100
AcDbLine
 10
35.0
 20
10.0
 30
0.0
 11
33.0
 21
6.0
 31
0.0
  0
LINE
  5
260
330
5EE
100
AcDbEntity
  8
layer 4
100
AcDbLine
 10
30.0
 20
6.0
 30
0.0
 11
35.0
 21
10.0
 31
0.0
  0
LINE
  5
261
330
5EE
100
AcDbEntity
  8
layer 4
100
AcDbLine
 10
35.0
 20
10.0
 30
0.0
 11
40.0
 21
6.0
 31
0.0
  0
LINE
  5
262
330
5EE
100
AcDbEntity
  8
layer 4
100
AcDbLine
 10
40.0
 20
6.0
 30
0.0
 11
39.0
 21
6.0
 31
0.0
  0
LINE
  5
263
330
5EE
100
AcDbEntity
  8
layer 4
100
AcDbLine
 10
33.0
 20
6.0
 30
0.0
 11
31.0
 21
6.0
 31
0.0
  0
LINE
  5
27C
330
5EE
100
AcDbEntity
  8
layer 4
100
AcDbLine
 10
39.42053440751121
 20
8.844747833032917
 30
0.0
 11
39.42053440751121
 21
8.844747833032917
 31
0.0
  0
LINE
  5
282
330
5EE
100
AcDbEntity
  8
layer 4
100
AcDbLine
 10
40.0
 20
8.0
 30
0.0
 11
40.0
 21
10.0
 31
0.0
  0
LINE
  5
28B
330
5EE
100
AcDbEntity
  8
layer 4
100
AcDbLine
 10
40.0
 20
0.0
 30
0.0
 11
40.0
 21
8.0
 31
0.0
  0
LINE
  5
297
330
5EE
100
AcDbEntity
  8
layer 5
100
AcDbLine
 10
32.0
 20
-8.0
 30
0.0
 11
35.0
 21
-5.0
 31
0.0
  0
HATCH
  5
298
330
5EE
100
AcDbEntity
  8
layer 5
100
AcDbHatch
 10
0.0
 20
0.0
 30
0.0
210
0.0
220
0.0
230
1.0
  2
SOLID
 70
     1
 71
     0
 91
        2
 92
        0
 93
        5
 72
     1
 10
32.0
 20
-8.0
 11
34.0
 21
-8.0
 72
     1
 10
34.0
 20
-8.0
 11
36.0
 21
-8.0
 72
     1
 10
36.0
 20
-8.0
 11
38.0
 21
-8.0
 72
     1
 10
38.0
 20
-8.0
 11
35.0
 21
-5.0
 72
     1
 10
35.0
 20
-5.0
 11
32.0
 21
-8.0
 97
        0
 92
        0
 93
        2
 72
     1
 10
40.42053440751121
 20
-2.155252166967083
 11
40.42053440751121
 21
-2.155252166967083
 72
     1
 10
40.42053440751121
 20
-2.155252166967083
 11
40.42053440751121
 21
-2.155252166967083
 97
        0
 75
     0
 76
     1
 98
        0
  0
LINE
  5
299
330
5EE
100
AcDbEntity
  8
layer 4
100
AcDbLine
 10
30.0
 20
-10.0
 30
0.0
 11
30.0
 21
-2.0
 31
0.0
  0
LINE
  5
29A
330
5EE
100
AcDbEntity
  8
layer 4
100
AcDbLine
 10
30.0
 20
0.0
 30
0.0
 11
32.0
 21
0.0
 31
0.0
  0
LINE
  5
29B
330
5EE
100
AcDbEntity
  8
layer 4
100
AcDbLine
 10
40.0
 20
0.0
 30
0.0
 11
40.0
 21
-2.0
 31
0.0
  0
LINE
  5
29C
330
5EE
100
AcDbEntity
  8
layer 4
100
AcDbLine
 10
40.0
 20
-10.0
 30
0.0
 11
36.0
 21
-10.0
 31
0.0
  0
LINE
  5
29D
330
5EE
100
AcDbEntity
  8
layer 4
100
AcDbLine
 10
30.0
 20
-10.0
 30
0.0
 11
32.0
 21
-8.0
 31
0.0
  0
LINE
  5
29E
330
5EE
100
AcDbEntity
  8
layer 5
100
AcDbLine
 10
35.0
 20
-5.0
 30
0.0
 11
38.0
 21
-8.0
 31
0.0
  0
LINE
  5
29F
330
5EE
100
AcDbEntity
  8
layer 4
100
AcDbLine
 10
40.0
 20
-10.0
 30
0.0
 11
39.0
 21
-8.0
 31
0.0
  0
LINE
  5
2A0
330
5EE
100
AcDbEntity
  8
layer 4
100
AcDbLine
 10
35.0
 20
0.0
 30
0.0
 11
33.0
 21
-4.0
 31
0.0
  0
LINE
  5
2A1
330
5EE
100
AcDbEntity
  8
layer 4
100
AcDbLine
 10
30.0
 20
-4.0
 30
0.0
 11
35.0
 21
0.0
 31
0.0
  0
LINE
  5
2A2
330
5EE
100
AcDbEntity
  8
layer 4
100
AcDbLine
 10
35.0
 20
0.0
 30
0.0
 11
40.0
 21
-4.0
 31
0.0
  0
LINE
  5
2A3
330
5EE
100
AcDbEntity
  8
layer 4
100
AcDbLine
 10
40.0
 20
-4.0
 30
0.0
 11
39.0
 21
-4.0
 31
0.0
  0
LINE
  5
2A4
330
5EE
100
AcDbEntity
  8
layer 4
100
AcDbLine
 10
33.0
 20
-4.0
 30
0.0
 11
31.0
 21
-4.0
 31
0.0
  0
LINE
  5
2A5
330
5EE
100
AcDbEntity
  8
layer 4
100
AcDbLine
 10
39.42053440751121
 20
-1.155252166967083
 30
0.0
 11
39.42053440751121
 21
-1.155252166967083
 31
0.0
  0
LINE
  5
2A6
330
5EE
100
AcDbEntity
  8
layer 4
100
AcDbLine
 10
40.0
 20
-2.0
 30
0.0
 11
40.0
 21
0.0
 31
0.0
  0
LINE
  5
2A7
330
5EE
100
AcDbEntity
  8
layer 4
100
AcDbLine
 10
40.0
 20
-10.0
 30
0.0
 11
40.0
 21
-2.0
 31
0.0
  0
LINE
  5
2A8
330
5EE
100
AcDbEntity
  8
layer 4
100
AcDbLine
 10
0.0
 20
-10.0
 30
0.0
 11
0.0
 21
-2.0
 31
0.0
  0
LINE
  5
2A9
330
5EE
100
AcDbEntity
  8
layer 4
100
AcDbLine
 10
0.0
 20
0.0
 30
0.0
 11
2.0
 21
0.0
 31
0.0
  0
LINE
  5
2AA
330
5EE
100
AcDbEntity
  8
layer 4
100
AcDbLine
 10
10.0
 20
0.0
 30
0.0
 11
10.0
 21
-2.0
 31
0.0
  0
LINE
  5
2AB
330
5EE
100
AcDbEntity
  8
layer 4
100
AcDbLine
 10
10.0
 20
-10.0
 30
0.0
 11
6.0
 21
-10.0
 31
0.0
  0
LINE
  5
2AC
330
5EE
100
AcDbEntity
  8
layer 4
100
AcDbLine
 10
0.0
 20
-10.0
 30
0.0
 11
2.0
 21
-8.0
 31
0.0
  0
LINE
  5
2AD
330
5EE
100
AcDbEntity
  8
layer 5
100
AcDbLine
 10
5.0
 20
-5.0
 30
0.0
 11
8.0
 21
-8.0
 31
0.0
  0
LINE
  5
2AE
330
5EE
100
AcDbEntity
  8
layer 4
100
AcDbLine
 10
10.0
 20
-10.0
 30
0.0
 11
9.0
 21
-8.0
 31
0.0
  0
LINE
  5
2AF
330
5EE
100
AcDbEntity
  8
layer 4
100
AcDbLine
 10
5.0
 20
0.0
 30
0.0
 11
3.0
 21
-4.0
 31
0.0
  0
LINE
  5
2B0
330
5EE
100
AcDbEntity
  8
layer 4
100
AcDbLine
 10
0.0
 20
-4.0
 30
0.0
 11
5.0
 21
0.0
 31
0.0
  0
LINE
  5
2B1
330
5EE
100
AcDbEntity
  8
layer 4
100
AcDbLine
 10
1.420534407511212
 20
2.844747833032917
 30
0.0
 11
1.420534407511212
 21
2.844747833032917
 31
0.0
  0
LINE
  5
2B2
330
5EE
100
AcDbEntity
  8
layer 4
100
AcDbLine
 10
5.0
 20
0.0
 30
0.0
 11
10.0
 21
-4.0
 31
0.0
  0
LINE
  5
2B3
330
5EE
100
AcDbEntity
  8
layer 4
100
AcDbLine
 10
10.0
 20
-4.0
 30
0.0
 11
9.0
 21
-4.0
 31
0.0
  0
LINE
  5
2B4
330
5EE
100
AcDbEntity
  8
layer 4
100
AcDbLine
 10
3.0
 20
-4.0
 30
0.0
 11
1.0
 21
-4.0
 31
0.0
  0
LINE
  5
2B5
330
5EE
100
AcDbEntity
  8
layer 5
100
AcDbLine
 10
4.0
 20
-8.0
 30
0.0
 11
6.0
 21
-8.0
 31
0.0
  0
LINE
  5
2B6
330
5EE
100
AcDbEntity
  8
layer 4
100
AcDbLine
 10
4.0
 20
-8.0
 30
0.0
 11
4.0
 21
-10.0
 31
0.0
  0
LINE
  5
2B7
330
5EE
100
AcDbEntity
  8
layer 4
100
AcDbLine
 10
6.0
 20
-8.0
 30
0.0
 11
6.0
 21
-10.0
 31
0.0
  0
LINE
  5
2B8
330
5EE
100
AcDbEntity
  8
layer 4
100
AcDbLine
 10
5.0
 20
-3.0
 30
0.0
 11
4.0
 21
-5.0
 31
0.0
  0
LINE
  5
2B9
330
5EE
100
AcDbEntity
  8
layer 4
100
AcDbLine
 10
4.0
 20
-5.0
 30
0.0
 11
5.0
 21
-4.0
 31
0.0
  0
LINE
  5
2BA
330
5EE
100
AcDbEntity
  8
layer 4
100
AcDbLine
 10
5.0
 20
-4.0
 30
0.0
 11
6.0
 21
-5.0
 31
0.0
  0
LINE
  5
2BB
330
5EE
100
AcDbEntity
  8
layer 4
100
AcDbLine
 10
6.0
 20
-5.0
 30
0.0
 11
5.0
 21
-3.0
 31
0.0
  0
LINE
  5
2BC
330
5EE
100
AcDbEntity
  8
layer 5
100
AcDbLine
 10
10.42053440751121
 20
-2.155252166967083
 30
0.0
 11
10.42053440751121
 21
-2.155252166967083
 31
0.0
  0
LINE
  5
2BD
330
5EE
100
AcDbEntity
  8
layer 4
100
AcDbLine
 10
9.0
 20
-4.0
 30
0.0
 11
9.0
 21
-4.0
 31
0.0
  0
HATCH
  5
2BE
330
5EE
100
AcDbEntity
  8
layer 4
100
AcDbHatch
 10
0.0
 20
0.0
 30
0.0
210
0.0
220
0.0
230
1.0
  2
SOLID
 70
     1
 71
     0
 91
        1
 92
        0
 93
        4
 72
     1
 10
5.0
 20
-3.0
 11
4.0
 21
-5.0
 72
     1
 10
4.0
 20
-5.0
 11
5.0
 21
-4.0
 72
     1
 10
5.0
 20
-4.0
 11
6.0
 21
-5.0
 72
     1
 10
6.0
 20
-5.0
 11
5.0
 21
-3.0
 97
        0
 75
     0
 76
     1
 98
        0
  0
LINE
  5
2BF
330
5EE
100
AcDbEntity
  8
layer 4
100
AcDbLine
 10
2.0
 20
0.0
 30
0.0
 11
8.0
 21
0.0
 31
0.0
  0
LINE
  5
2C0
330
5EE
100
AcDbEntity
  8
layer 5
100
AcDbLine
 10
6.0
 20
-8.0
 30
0.0
 11
8.0
 21
-8.0
 31
0.0
  0
LINE
  5
2C1
330
5EE
100
AcDbEntity
  8
layer 5
100
AcDbLine
 10
2.0
 20
-8.0
 30
0.0
 11
4.0
 21
-8.0
 31
0.0
  0
LINE
  5
2C2
330
5EE
100
AcDbEntity
  8
layer 4
100
AcDbLine
 10
4.0
 20
-10.0
 30
0.0
 11
0.0
 21
-10.0
 31
0.0
  0
LINE
  5
2C3
330
5EE
100
AcDbEntity
  8
layer 4
100
AcDbLine
 10
6.0
 20
-10.0
 30
0.0
 11
4.0
 21
-10.0
 31
0.0
  0
HATCH
  5
2C4
330
5EE
100
AcDbEntity
  8
0
100
AcDbHatch
 10
0.0
 20
0.0
 30
0.0
210
0.0
220
0.0
230
1.0
  2
SOLID
 70
     1
 71
     0
 91
        1
 92
        0
 93
        4
 72
     1
 10
4.0
 20
-8.0
 11
4.0
 21
-10.0
 72
     1
 10
4.0
 20
-10.0
 11
6.0
 21
-10.0
 72
     1
 10
6.0
 20
-10.0
 11
6.0
 21
-8.0
 72
     1
 10
6.0
 20
-8.0
 11
4.0
 21
-8.0
 97
        0
 75
     0
 76
     1
 98
        0
  0
LINE
  5
2C5
330
5EE
100
AcDbEntity
  8
layer 4
100
AcDbLine
 10
7.0
 20
-4.0
 30
0.0
 11
5.0
 21
0.0
 31
0.0
  0
LINE
  5
2C6
330
5EE
100
AcDbEntity
  8
layer 4
100
AcDbLine
 10
9.0
 20
-8.0
 30
0.0
 11
9.0
 21
-8.0
 31
0.0
  0
LINE
  5
2C7
330
5EE
100
AcDbEntity
  8
layer 4
100
AcDbLine
 10
9.0
 20
-8.0
 30
0.0
 11
7.0
 21
-4.0
 31
0.0
  0
LINE
  5
2C8
330
5EE
100
AcDbEntity
  8
layer 4
100
AcDbLine
 10
9.0
 20
-4.0
 30
0.0
 11
9.0
 21
-8.0
 31
0.0
  0
LINE
  5
2C9
330
5EE
100
AcDbEntity
  8
layer 4
100
AcDbLine
 10
9.0
 20
-4.0
 30
0.0
 11
7.0
 21
-4.0
 31
0.0
  0
LINE
  5
2CA
330
5EE
100
AcDbEntity
  8
layer 5
100
AcDbLine
 10
10.42053440751121
 20
-2.155252166967083
 30
0.0
 11
10.42053440751121
 21
-2.155252166967083
 31
0.0
  0
LINE
  5
2CB
330
5EE
100
AcDbEntity
  8
layer 4
100
AcDbLine
 10
1.0
 20
-8.0
 30
0.0
 11
1.0
 21
-8.0
 31
0.0
  0
LINE
  5
2CC
330
5EE
100
AcDbEntity
  8
layer 4
100
AcDbLine
 10
3.0
 20
-4.0
 30
0.0
 11
1.0
 21
-8.0
 31
0.0
  0
LINE
  5
2CD
330
5EE
100
AcDbEntity
  8
layer 4
100
AcDbLine
 10
-0.5794655924887877
 20
-1.155252166967083
 30
0.0
 11
-0.5794655924887877
 21
-1.155252166967083
 31
0.0
  0
LINE
  5
2CE
330
5EE
100
AcDbEntity
  8
layer 4
100
AcDbLine
 10
1.0
 20
-8.0
 30
0.0
 11
0.0
 21
-10.0
 31
0.0
  0
HATCH
  5
2CF
330
5EE
100
AcDbEntity
  8
layer 2
100
AcDbHatch
 10
0.0
 20
0.0
 30
0.0
210
0.0
220
0.0
230
1.0
  2
SOLID
 70
     1
 71
     0
 91
        1
 92
        0
 93
        5
 72
     1
 10
9.0
 20
-8.0
 11
9.0
 21
-8.0
 72
     1
 10
9.0
 20
-8.0
 11
7.0
 21
-4.0
 72
     1
 10
7.0
 20
-4.0
 11
9.0
 21
-4.0
 72
     1
 10
9.0
 20
-4.0
 11
9.0
 21
-4.0
 72
     1
 10
9.0
 20
-4.0
 11
9.0
 21
-8.0
 97
        0
 75
     0
 76
     1
 98
        0
  0
LINE
  5
2D0
330
5EE
100
AcDbEntity
  8
layer 4
100
AcDbLine
 10
1.0
 20
-4.0
 30
0.0
 11
1.0
 21
-8.0
 31
0.0
  0
LINE
  5
2D1
330
5EE
100
AcDbEntity
  8
layer 4
100
AcDbLine
 10
1.0
 20
-4.0
 30
0.0
 11
0.0
 21
-4.0
 31
0.0
  0
HATCH
  5
2D2
330
5EE
100
AcDbEntity
  8
0
 62
    18
420
        0
100
AcDbHatch
 10
0.0
 20
0.0
 30
0.0
210
0.0
220
0.0
230
1.0
  2
SOLID
 70
     1
 71
     0
 91
        1
 92
        0
 93
        5
 72
     1
 10
1.0
 20
-4.0
 11
1.0
 21
-4.0
 72
     1
 10
1.0
 20
-4.0
 11
1.0
 21
-4.0
 72
     1
 10
1.0
 20
-4.0
 11
3.0
 21
-4.0
 72
     1
 10
3.0
 20
-4.0
 11
1.0
 21
-8.0
 72
     1
 10
1.0
 20
-8.0
 11
1.0
 21
-4.0
 97
        0
 75
     0
 76
     1
 98
        0
  0
LINE
  5
2D3
330
5EE
100
AcDbEntity
  8
layer 4
100
AcDbLine
 10
0.0
 20
-2.0
 30
0.0
 11
0.0
 21
0.0
 31
0.0
  0
LINE
  5
2D4
330
5EE
100
AcDbEntity
  8
layer 4
100
AcDbLine
 10
10.0
 20
-2.0
 30
0.0
 11
10.0
 21
-10.0
 31
0.0
  0
LINE
  5
2D5
330
5EE
100
AcDbEntity
  8
layer 4
100
AcDbLine
 10
8.0
 20
0.0
 30
0.0
 11
10.0
 21
0.0
 31
0.0
  0
LINE
  5
2D6
330
5EE
100
AcDbEntity
  8
layer 4
100
AcDbLine
 10
2.0
 20
0.0
 30
0.0
 11
2.0
 21
0.0
 31
0.0
  0
HATCH
  5
2D7
330
5EE
100
AcDbEntity
  8
layer 1
100
AcDbHatch
 10
0.0
 20
0.0
 30
0.0
210
0.0
220
0.0
230
1.0
  2
SOLID
 70
     1
 71
     0
 91
        1
 92
        0
 93
        4
 72
     1
 10
1.0
 20
-4.0
 11
0.0
 21
-4.0
 72
     1
 10
0.0
 20
-4.0
 11
5.0
 21
0.0
 72
     1
 10
5.0
 20
0.0
 11
3.0
 21
-4.0
 72
     1
 10
3.0
 20
-4.0
 11
1.0
 21
-4.0
 97
        0
 75
     0
 76
     1
 98
        0
  0
HATCH
  5
2D8
330
5EE
100
AcDbEntity
  8
layer 1
100
AcDbHatch
 10
0.0
 20
0.0
 30
0.0
210
0.0
220
0.0
230
1.0
  2
SOLID
 70
     1
 71
     0
 91
        1
 92
        0
 93
        4
 72
     1
 10
7.0
 20
-4.0
 11
5.0
 21
0.0
 72
     1
 10
5.0
 20
0.0
 11
10.0
 21
-4.0
 72
     1
 10
10.0
 20
-4.0
 11
9.0
 21
-4.0
 72
     1
 10
9.0
 20
-4.0
 11
7.0
 21
-4.0
 97
        0
 75
     0
 76
     1
 98
        0
  0
LINE
  5
2D9
330
5EE
100
AcDbEntity
  8
layer 4
100
AcDbLine
 10
8.0
 20
-8.0
 30
0.0
 11
10.0
 21
-10.0
 31
0.0
  0
LINE
  5
2DA
330
5EE
100
AcDbEntity
  8
layer 5
100
AcDbLine
 10
2.0
 20
-8.0
 30
0.0
 11
5.0
 21
-5.0
 31
0.0
  0
HATCH
  5
2DB
330
5EE
100
AcDbEntity
  8
layer 5
100
AcDbHatch
 10
0.0
 20
0.0
 30
0.0
210
0.0
220
0.0
230
1.0
  2
SOLID
 70
     1
 71
     0
 91
        2
 92
        0
 93
        5
 72
     1
 10
2.0
 20
-8.0
 11
4.0
 21
-8.0
 72
     1
 10
4.0
 20
-8.0
 11
6.0
 21
-8.0
 72
     1
 10
6.0
 20
-8.0
 11
8.0
 21
-8.0
 72
     1
 10
8.0
 20
-8.0
 11
5.0
 21
-5.0
 72
     1
 10
5.0
 20
-5.0
 11
2.0
 21
-8.0
 97
        0
 92
        0
 93
        2
 72
     1
 10
10.42053440751121
 20
-2.155252166967083
 11
10.42053440751121
 21
-2.155252166967083
 72
     1
 10
10.42053440751121
 20
-2.155252166967083
 11
10.42053440751121
 21
-2.155252166967083
 97
        0
 75
     0
 76
     1
 98
        0
  0
LINE
  5
2DC
330
5EE
100
AcDbEntity
  8
layer 5
100
AcDbLine
 10
14.0
 20
-8.0
 30
0.0
 11
16.0
 21
-8.0
 31
0.0
  0
LINE
  5
2DD
330
5EE
100
AcDbEntity
  8
layer 4
100
AcDbLine
 10
14.0
 20
-8.0
 30
0.0
 11
14.0
 21
-10.0
 31
0.0
  0
LINE
  5
2DE
330
5EE
100
AcDbEntity
  8
layer 4
100
AcDbLine
 10
16.0
 20
-8.0
 30
0.0
 11
16.0
 21
-10.0
 31
0.0
  0
LINE
  5
2DF
330
5EE
100
AcDbEntity
  8
layer 4
100
AcDbLine
 10
15.0
 20
-3.0
 30
0.0
 11
14.0
 21
-5.0
 31
0.0
  0
LINE
  5
2E0
330
5EE
100
AcDbEntity
  8
layer 4
100
AcDbLine
 10
14.0
 20
-5.0
 30
0.0
 11
15.0
 21
-4.0
 31
0.0
  0
LINE
  5
2E1
330
5EE
100
AcDbEntity
  8
layer 4
100
AcDbLine
 10
15.0
 20
-4.0
 30
0.0
 11
16.0
 21
-5.0
 31
0.0
  0
LINE
  5
2E2
330
5EE
100
AcDbEntity
  8
layer 4
100
AcDbLine
 10
16.0
 20
-5.0
 30
0.0
 11
15.0
 21
-3.0
 31
0.0
  0
LINE
  5
2E3
330
5EE
100
AcDbEntity
  8
layer 5
100
AcDbLine
 10
20.42053440751121
 20
-2.155252166967083
 30
0.0
 11
20.42053440751121
 21
-2.155252166967083
 31
0.0
  0
LINE
  5
2E4
330
5EE
100
AcDbEntity
  8
layer 4
100
AcDbLine
 10
19.0
 20
-4.0
 30
0.0
 11
19.0
 21
-4.0
 31
0.0
  0
HATCH
  5
2E5
330
5EE
100
AcDbEntity
  8
layer 4
100
AcDbHatch
 10
0.0
 20
0.0
 30
0.0
210
0.0
220
0.0
230
1.0
  2
SOLID
 70
     1
 71
     0
 91
        1
 92
        0
 93
        4
 72
     1
 10
15.0
 20
-3.0
 11
14.0
 21
-5.0
 72
     1
 10
14.0
 20
-5.0
 11
15.0
 21
-4.0
 72
     1
 10
15.0
 20
-4.0
 11
16.0
 21
-5.0
 72
     1
 10
16.0
 20
-5.0
 11
15.0
 21
-3.0
 97
        0
 75
     0
 76
     1
 98
        0
  0
LINE
  5
2E6
330
5EE
100
AcDbEntity
  8
layer 4
100
AcDbLine
 10
12.0
 20
0.0
 30
0.0
 11
18.0
 21
0.0
 31
0.0
  0
LINE
  5
2E7
330
5EE
100
AcDbEntity
  8
layer 5
100
AcDbLine
 10
16.0
 20
-8.0
 30
0.0
 11
18.0
 21
-8.0
 31
0.0
  0
LINE
  5
2E8
330
5EE
100
AcDbEntity
  8
layer 5
100
AcDbLine
 10
12.0
 20
-8.0
 30
0.0
 11
14.0
 21
-8.0
 31
0.0
  0
LINE
  5
2E9
330
5EE
100
AcDbEntity
  8
layer 4
100
AcDbLine
 10
14.0
 20
-10.0
 30
0.0
 11
10.0
 21
-10.0
 31
0.0
  0
LINE
  5
2EA
330
5EE
100
AcDbEntity
  8
layer 4
100
AcDbLine
 10
16.0
 20
-10.0
 30
0.0
 11
14.0
 21
-10.0
 31
0.0
  0
HATCH
  5
2EB
330
5EE
100
AcDbEntity
  8
0
100
AcDbHatch
 10
0.0
 20
0.0
 30
0.0
210
0.0
220
0.0
230
1.0
  2
SOLID
 70
     1
 71
     0
 91
        1
 92
        0
 93
        4
 72
     1
 10
14.0
 20
-8.0
 11
14.0
 21
-10.0
 72
     1
 10
14.0
 20
-10.0
 11
16.0
 21
-10.0
 72
     1
 10
16.0
 20
-10.0
 11
16.0
 21
-8.0
 72
     1
 10
16.0
 20
-8.0
 11
14.0
 21
-8.0
 97
        0
 75
     0
 76
     1
 98
        0
  0
LINE
  5
2EC
330
5EE
100
AcDbEntity
  8
layer 4
100
AcDbLine
 10
17.0
 20
-4.0
 30
0.0
 11
15.0
 21
0.0
 31
0.0
  0
LINE
  5
2ED
330
5EE
100
AcDbEntity
  8
layer 4
100
AcDbLine
 10
19.0
 20
-8.0
 30
0.0
 11
19.0
 21
-8.0
 31
0.0
  0
LINE
  5
2EE
330
5EE
100
AcDbEntity
  8
layer 4
100
AcDbLine
 10
19.0
 20
-8.0
 30
0.0
 11
17.0
 21
-4.0
 31
0.0
  0
LINE
  5
2EF
330
5EE
100
AcDbEntity
  8
layer 4
100
AcDbLine
 10
19.0
 20
-4.0
 30
0.0
 11
19.0
 21
-8.0
 31
0.0
  0
LINE
  5
2F0
330
5EE
100
AcDbEntity
  8
layer 4
100
AcDbLine
 10
19.0
 20
-4.0
 30
0.0
 11
17.0
 21
-4.0
 31
0.0
  0
LINE
  5
2F1
330
5EE
100
AcDbEntity
  8
layer 5
100
AcDbLine
 10
20.42053440751121
 20
-2.155252166967083
 30
0.0
 11
20.42053440751121
 21
-2.155252166967083
 31
0.0
  0
LINE
  5
2F2
330
5EE
100
AcDbEntity
  8
layer 4
100
AcDbLine
 10
11.0
 20
-8.0
 30
0.0
 11
11.0
 21
-8.0
 31
0.0
  0
LINE
  5
2F3
330
5EE
100
AcDbEntity
  8
layer 4
100
AcDbLine
 10
13.0
 20
-4.0
 30
0.0
 11
11.0
 21
-8.0
 31
0.0
  0
LINE
  5
2F4
330
5EE
100
AcDbEntity
  8
layer 4
100
AcDbLine
 10
9.420534407511212
 20
-1.155252166967083
 30
0.0
 11
9.420534407511212
 21
-1.155252166967083
 31
0.0
  0
LINE
  5
2F5
330
5EE
100
AcDbEntity
  8
layer 4
100
AcDbLine
 10
11.0
 20
-8.0
 30
0.0
 11
10.0
 21
-10.0
 31
0.0
  0
HATCH
  5
2F6
330
5EE
100
AcDbEntity
  8
layer 2
100
AcDbHatch
 10
0.0
 20
0.0
 30
0.0
210
0.0
220
0.0
230
1.0
  2
SOLID
 70
     1
 71
     0
 91
        1
 92
        0
 93
        5
 72
     1
 10
19.0
 20
-8.0
 11
19.0
 21
-8.0
 72
     1
 10
19.0
 20
-8.0
 11
17.0
 21
-4.0
 72
     1
 10
17.0
 20
-4.0
 11
19.0
 21
-4.0
 72
     1
 10
19.0
 20
-4.0
 11
19.0
 21
-4.0
 72
     1
 10
19.0
 20
-4.0
 11
19.0
 21
-8.0
 97
        0
 75
     0
 76
     1
 98
        0
  0
LINE
  5
2F7
330
5EE
100
AcDbEntity
  8
layer 4
100
AcDbLine
 10
11.0
 20
-4.0
 30
0.0
 11
11.0
 21
-8.0
 31
0.0
  0
LINE
  5
2F8
330
5EE
100
AcDbEntity
  8
layer 4
100
AcDbLine
 10
11.0
 20
-4.0
 30
0.0
 11
10.0
 21
-4.0
 31
0.0
  0
HATCH
  5
2F9
330
5EE
100
AcDbEntity
  8
0
 62
    18
420
        0
100
AcDbHatch
 10
0.0
 20
0.0
 30
0.0
210
0.0
220
0.0
230
1.0
  2
SOLID
 70
     1
 71
     0
 91
        1
 92
        0
 93
        5
 72
     1
 10
11.0
 20
-4.0
 11
11.0
 21
-4.0
 72
     1
 10
11.0
 20
-4.0
 11
11.0
 21
-4.0
 72
     1
 10
11.0
 20
-4.0
 11
13.0
 21
-4.0
 72
     1
 10
13.0
 20
-4.0
 11
11.0
 21
-8.0
 72
     1
 10
11.0
 20
-8.0
 11
11.0
 21
-4.0
 97
        0
 75
     0
 76
     1
 98
        0
  0
LINE
  5
2FA
330
5EE
100
AcDbEntity
  8
layer 4
100
AcDbLine
 10
10.0
 20
-2.0
 30
0.0
 11
10.0
 21
0.0
 31
0.0
  0
LINE
  5
2FB
330
5EE
100
AcDbEntity
  8
layer 4
100
AcDbLine
 10
20.0
 20
-2.0
 30
0.0
 11
20.0
 21
-10.0
 31
0.0
  0
LINE
  5
2FC
330
5EE
100
AcDbEntity
  8
layer 4
100
AcDbLine
 10
18.0
 20
0.0
 30
0.0
 11
20.0
 21
0.0
 31
0.0
  0
LINE
  5
2FD
330
5EE
100
AcDbEntity
  8
layer 4
100
AcDbLine
 10
12.0
 20
0.0
 30
0.0
 11
12.0
 21
0.0
 31
0.0
  0
HATCH
  5
2FE
330
5EE
100
AcDbEntity
  8
layer 1
100
AcDbHatch
 10
0.0
 20
0.0
 30
0.0
210
0.0
220
0.0
230
1.0
  2
SOLID
 70
     1
 71
     0
 91
        1
 92
        0
 93
        4
 72
     1
 10
11.0
 20
-4.0
 11
10.0
 21
-4.0
 72
     1
 10
10.0
 20
-4.0
 11
15.0
 21
0.0
 72
     1
 10
15.0
 20
0.0
 11
13.0
 21
-4.0
 72
     1
 10
13.0
 20
-4.0
 11
11.0
 21
-4.0
 97
        0
 75
     0
 76
     1
 98
        0
  0
HATCH
  5
2FF
330
5EE
100
AcDbEntity
  8
layer 1
100
AcDbHatch
 10
0.0
 20
0.0
 30
0.0
210
0.0
220
0.0
230
1.0
  2
SOLID
 70
     1
 71
     0
 91
        1
 92
        0
 93
        4
 72
     1
 10
17.0
 20
-4.0
 11
15.0
 21
0.0
 72
     1
 10
15.0
 20
0.0
 11
20.0
 21
-4.0
 72
     1
 10
20.0
 20
-4.0
 11
19.0
 21
-4.0
 72
     1
 10
19.0
 20
-4.0
 11
17.0
 21
-4.0
 97
        0
 75
     0
 76
     1
 98
        0
  0
LINE
  5
300
330
5EE
100
AcDbEntity
  8
layer 4
100
AcDbLine
 10
18.0
 20
-8.0
 30
0.0
 11
20.0
 21
-10.0
 31
0.0
  0
LINE
  5
301
330
5EE
100
AcDbEntity
  8
layer 5
100
AcDbLine
 10
12.0
 20
-8.0
 30
0.0
 11
15.0
 21
-5.0
 31
0.0
  0
HATCH
  5
302
330
5EE
100
AcDbEntity
  8
layer 5
100
AcDbHatch
 10
0.0
 20
0.0
 30
0.0
210
0.0
220
0.0
230
1.0
  2
SOLID
 70
     1
 71
     0
 91
        2
 92
        0
 93
        5
 72
     1
 10
12.0
 20
-8.0
 11
14.0
 21
-8.0
 72
     1
 10
14.0
 20
-8.0
 11
16.0
 21
-8.0
 72
     1
 10
16.0
 20
-8.0
 11
18.0
 21
-8.0
 72
     1
 10
18.0
 20
-8.0
 11
15.0
 21
-5.0
 72
     1
 10
15.0
 20
-5.0
 11
12.0
 21
-8.0
 97
        0
 92
        0
 93
        2
 72
     1
 10
20.42053440751121
 20
-2.155252166967083
 11
20.42053440751121
 21
-2.155252166967083
 72
     1
 10
20.42053440751121
 20
-2.155252166967083
 11
20.42053440751121
 21
-2.155252166967083
 97
        0
 75
     0
 76
     1
 98
        0
  0
LINE
  5
303
330
5EE
100
AcDbEntity
  8
layer 4
100
AcDbLine
 10
10.0
 20
-10.0
 30
0.0
 11
10.0
 21
-2.0
 31
0.0
  0
LINE
  5
304
330
5EE
100
AcDbEntity
  8
layer 4
100
AcDbLine
 10
10.0
 20
0.0
 30
0.0
 11
12.0
 21
0.0
 31
0.0
  0
LINE
  5
305
330
5EE
100
AcDbEntity
  8
layer 4
100
AcDbLine
 10
20.0
 20
0.0
 30
0.0
 11
20.0
 21
-2.0
 31
0.0
  0
LINE
  5
306
330
5EE
100
AcDbEntity
  8
layer 4
100
AcDbLine
 10
20.0
 20
-10.0
 30
0.0
 11
16.0
 21
-10.0
 31
0.0
  0
LINE
  5
307
330
5EE
100
AcDbEntity
  8
layer 4
100
AcDbLine
 10
10.0
 20
-10.0
 30
0.0
 11
12.0
 21
-8.0
 31
0.0
  0
LINE
  5
308
330
5EE
100
AcDbEntity
  8
layer 5
100
AcDbLine
 10
15.0
 20
-5.0
 30
0.0
 11
18.0
 21
-8.0
 31
0.0
  0
LINE
  5
309
330
5EE
100
AcDbEntity
  8
layer 4
100
AcDbLine
 10
20.0
 20
-10.0
 30
0.0
 11
19.0
 21
-8.0
 31
0.0
  0
LINE
  5
30A
330
5EE
100
AcDbEntity
  8
layer 4
100
AcDbLine
 10
15.0
 20
0.0
 30
0.0
 11
13.0
 21
-4.0
 31
0.0
  0
LINE
  5
30B
330
5EE
100
AcDbEntity
  8
layer 4
100
AcDbLine
 10
10.0
 20
-4.0
 30
0.0
 11
15.0
 21
0.0
 31
0.0
  0
LINE
  5
30C
330
5EE
100
AcDbEntity
  8
layer 4
100
AcDbLine
 10
15.0
 20
0.0
 30
0.0
 11
20.0
 21
-4.0
 31
0.0
  0
LINE
  5
30D
330
5EE
100
AcDbEntity
  8
layer 4
100
AcDbLine
 10
20.0
 20
-4.0
 30
0.0
 11
19.0
 21
-4.0
 31
0.0
  0
LINE
  5
30E
330
5EE
100
AcDbEntity
  8
layer 4
100
AcDbLine
 10
13.0
 20
-4.0
 30
0.0
 11
11.0
 21
-4.0
 31
0.0
  0
LINE
  5
30F
330
5EE
100
AcDbEntity
  8
layer 5
100
AcDbLine
 10
24.0
 20
-8.0
 30
0.0
 11
26.0
 21
-8.0
 31
0.0
  0
LINE
  5
310
330
5EE
100
AcDbEntity
  8
layer 4
100
AcDbLine
 10
24.0
 20
-8.0
 30
0.0
 11
24.0
 21
-10.0
 31
0.0
  0
LINE
  5
311
330
5EE
100
AcDbEntity
  8
layer 4
100
AcDbLine
 10
26.0
 20
-8.0
 30
0.0
 11
26.0
 21
-10.0
 31
0.0
  0
LINE
  5
312
330
5EE
100
AcDbEntity
  8
layer 4
100
AcDbLine
 10
25.0
 20
-3.0
 30
0.0
 11
24.0
 21
-5.0
 31
0.0
  0
LINE
  5
313
330
5EE
100
AcDbEntity
  8
layer 4
100
AcDbLine
 10
24.0
 20
-5.0
 30
0.0
 11
25.0
 21
-4.0
 31
0.0
  0
LINE
  5
314
330
5EE
100
AcDbEntity
  8
layer 4
100
AcDbLine
 10
25.0
 20
-4.0
 30
0.0
 11
26.0
 21
-5.0
 31
0.0
  0
LINE
  5
315
330
5EE
100
AcDbEntity
  8
layer 4
100
AcDbLine
 10
26.0
 20
-5.0
 30
0.0
 11
25.0
 21
-3.0
 31
0.0
  0
LINE
  5
316
330
5EE
100
AcDbEntity
  8
layer 5
100
AcDbLine
 10
30.42053440751121
 20
-2.155252166967083
 30
0.0
 11
30.42053440751121
 21
-2.155252166967083
 31
0.0
  0
LINE
  5
317
330
5EE
100
AcDbEntity
  8
layer 4
100
AcDbLine
 10
29.0
 20
-4.0
 30
0.0
 11
29.0
 21
-4.0
 31
0.0
  0
HATCH
  5
318
330
5EE
100
AcDbEntity
  8
layer 4
100
AcDbHatch
 10
0.0
 20
0.0
 30
0.0
210
0.0
220
0.0
230
1.0
  2
SOLID
 70
     1
 71
     0
 91
        1
 92
        0
 93
        4
 72
     1
 10
25.0
 20
-3.0
 11
24.0
 21
-5.0
 72
     1
 10
24.0
 20
-5.0
 11
25.0
 21
-4.0
 72
     1
 10
25.0
 20
-4.0
 11
26.0
 21
-5.0
 72
     1
 10
26.0
 20
-5.0
 11
25.0
 21
-3.0
 97
        0
 75
     0
 76
     1
 98
        0
  0
LINE
  5
319
330
5EE
100
AcDbEntity
  8
layer 4
100
AcDbLine
 10
22.0
 20
0.0
 30
0.0
 11
28.0
 21
0.0
 31
0.0
  0
LINE
  5
31A
330
5EE
100
AcDbEntity
  8
layer 5
100
AcDbLine
 10
26.0
 20
-8.0
 30
0.0
 11
28.0
 21
-8.0
 31
0.0
  0
LINE
  5
31B
330
5EE
100
AcDbEntity
  8
layer 5
100
AcDbLine
 10
22.0
 20
-8.0
 30
0.0
 11
24.0
 21
-8.0
 31
0.0
  0
LINE
  5
31C
330
5EE
100
AcDbEntity
  8
layer 4
100
AcDbLine
 10
24.0
 20
-10.0
 30
0.0
 11
20.0
 21
-10.0
 31
0.0
  0
LINE
  5
31D
330
5EE
100
AcDbEntity
  8
layer 4
100
AcDbLine
 10
26.0
 20
-10.0
 30
0.0
 11
24.0
 21
-10.0
 31
0.0
  0
HATCH
  5
31E
330
5EE
100
AcDbEntity
  8
0
100
AcDbHatch
 10
0.0
 20
0.0
 30
0.0
210
0.0
220
0.0
230
1.0
  2
SOLID
 70
     1
 71
     0
 91
        1
 92
        0
 93
        4
 72
     1
 10
24.0
 20
-8.0
 11
24.0
 21
-10.0
 72
     1
 10
24.0
 20
-10.0
 11
26.0
 21
-10.0
 72
     1
 10
26.0
 20
-10.0
 11
26.0
 21
-8.0
 72
     1
 10
26.0
 20
-8.0
 11
24.0
 21
-8.0
 97
        0
 75
     0
 76
     1
 98
        0
  0
LINE
  5
31F
330
5EE
100
AcDbEntity
  8
layer 4
100
AcDbLine
 10
27.0
 20
-4.0
 30
0.0
 11
25.0
 21
0.0
 31
0.0
  0
LINE
  5
320
330
5EE
100
AcDbEntity
  8
layer 4
100
AcDbLine
 10
29.0
 20
-8.0
 30
0.0
 11
29.0
 21
-8.0
 31
0.0
  0
LINE
  5
321
330
5EE
100
AcDbEntity
  8
layer 4
100
AcDbLine
 10
29.0
 20
-8.0
 30
0.0
 11
27.0
 21
-4.0
 31
0.0
  0
LINE
  5
322
330
5EE
100
AcDbEntity
  8
layer 4
100
AcDbLine
 10
29.0
 20
-4.0
 30
0.0
 11
29.0
 21
-8.0
 31
0.0
  0
LINE
  5
323
330
5EE
100
AcDbEntity
  8
layer 4
100
AcDbLine
 10
29.0
 20
-4.0
 30
0.0
 11
27.0
 21
-4.0
 31
0.0
  0
LINE
  5
324
330
5EE
100
AcDbEntity
  8
layer 5
100
AcDbLine
 10
30.42053440751121
 20
-2.155252166967083
 30
0.0
 11
30.42053440751121
 21
-2.155252166967083
 31
0.0
  0
LINE
  5
325
330
5EE
100
AcDbEntity
  8
layer 4
100
AcDbLine
 10
21.0
 20
-8.0
 30
0.0
 11
21.0
 21
-8.0
 31
0.0
  0
LINE
  5
326
330
5EE
100
AcDbEntity
  8
layer 4
100
AcDbLine
 10
23.0
 20
-4.0
 30
0.0
 11
21.0
 21
-8.0
 31
0.0
  0
LINE
  5
327
330
5EE
100
AcDbEntity
  8
layer 4
100
AcDbLine
 10
19.42053440751121
 20
-1.155252166967083
 30
0.0
 11
19.42053440751121
 21
-1.155252166967083
 31
0.0
  0
LINE
  5
328
330
5EE
100
AcDbEntity
  8
layer 4
100
AcDbLine
 10
21.0
 20
-8.0
 30
0.0
 11
20.0
 21
-10.0
 31
0.0
  0
HATCH
  5
329
330
5EE
100
AcDbEntity
  8
layer 2
100
AcDbHatch
 10
0.0
 20
0.0
 30
0.0
210
0.0
220
0.0
230
1.0
  2
SOLID
 70
     1
 71
     0
 91
        1
 92
        0
 93
        5
 72
     1
 10
29.0
 20
-8.0
 11
29.0
 21
-8.0
 72
     1
 10
29.0
 20
-8.0
 11
27.0
 21
-4.0
 72
     1
 10
27.0
 20
-4.0
 11
29.0
 21
-4.0
 72
     1
 10
29.0
 20
-4.0
 11
29.0
 21
-4.0
 72
     1
 10
29.0
 20
-4.0
 11
29.0
 21
-8.0
 97
        0
 75
     0
 76
     1
 98
        0
  0
LINE
  5
32A
330
5EE
100
AcDbEntity
  8
layer 4
100
AcDbLine
 10
21.0
 20
-4.0
 30
0.0
 11
21.0
 21
-8.0
 31
0.0
  0
LINE
  5
32B
330
5EE
100
AcDbEntity
  8
layer 4
100
AcDbLine
 10
21.0
 20
-4.0
 30
0.0
 11
20.0
 21
-4.0
 31
0.0
  0
HATCH
  5
32C
330
5EE
100
AcDbEntity
  8
0
 62
    18
420
        0
100
AcDbHatch
 10
0.0
 20
0.0
 30
0.0
210
0.0
220
0.0
230
1.0
  2
SOLID
 70
     1
 71
     0
 91
        1
 92
        0
 93
        5
 72
     1
 10
21.0
 20
-4.0
 11
21.0
 21
-4.0
 72
     1
 10
21.0
 20
-4.0
 11
21.0
 21
-4.0
 72
     1
 10
21.0
 20
-4.0
 11
23.0
 21
-4.0
 72
     1
 10
23.0
 20
-4.0
 11
21.0
 21
-8.0
 72
     1
 10
21.0
 20
-8.0
 11
21.0
 21
-4.0
 97
        0
 75
     0
 76
     1
 98
        0
  0
LINE
  5
32D
330
5EE
100
AcDbEntity
  8
layer 4
100
AcDbLine
 10
20.0
 20
-2.0
 30
0.0
 11
20.0
 21
0.0
 31
0.0
  0
LINE
  5
32E
330
5EE
100
AcDbEntity
  8
layer 4
100
AcDbLine
 10
30.0
 20
-2.0
 30
0.0
 11
30.0
 21
-10.0
 31
0.0
  0
LINE
  5
32F
330
5EE
100
AcDbEntity
  8
layer 4
100
AcDbLine
 10
28.0
 20
0.0
 30
0.0
 11
30.0
 21
0.0
 31
0.0
  0
LINE
  5
330
330
5EE
100
AcDbEntity
  8
layer 4
100
AcDbLine
 10
22.0
 20
0.0
 30
0.0
 11
22.0
 21
0.0
 31
0.0
  0
HATCH
  5
331
330
5EE
100
AcDbEntity
  8
layer 1
100
AcDbHatch
 10
0.0
 20
0.0
 30
0.0
210
0.0
220
0.0
230
1.0
  2
SOLID
 70
     1
 71
     0
 91
        1
 92
        0
 93
        4
 72
     1
 10
21.0
 20
-4.0
 11
20.0
 21
-4.0
 72
     1
 10
20.0
 20
-4.0
 11
25.0
 21
0.0
 72
     1
 10
25.0
 20
0.0
 11
23.0
 21
-4.0
 72
     1
 10
23.0
 20
-4.0
 11
21.0
 21
-4.0
 97
        0
 75
     0
 76
     1
 98
        0
  0
HATCH
  5
332
330
5EE
100
AcDbEntity
  8
layer 1
100
AcDbHatch
 10
0.0
 20
0.0
 30
0.0
210
0.0
220
0.0
230
1.0
  2
SOLID
 70
     1
 71
     0
 91
        1
 92
        0
 93
        4
 72
     1
 10
27.0
 20
-4.0
 11
25.0
 21
0.0
 72
     1
 10
25.0
 20
0.0
 11
30.0
 21
-4.0
 72
     1
 10
30.0
 20
-4.0
 11
29.0
 21
-4.0
 72
     1
 10
29.0
 20
-4.0
 11
27.0
 21
-4.0
 97
        0
 75
     0
 76
     1
 98
        0
  0
LINE
  5
333
330
5EE
100
AcDbEntity
  8
layer 4
100
AcDbLine
 10
28.0
 20
-8.0
 30
0.0
 11
30.0
 21
-10.0
 31
0.0
  0
LINE
  5
334
330
5EE
100
AcDbEntity
  8
layer 5
100
AcDbLine
 10
22.0
 20
-8.0
 30
0.0
 11
25.0
 21
-5.0
 31
0.0
  0
HATCH
  5
335
330
5EE
100
AcDbEntity
  8
layer 5
100
AcDbHatch
 10
0.0
 20
0.0
 30
0.0
210
0.0
220
0.0
230
1.0
  2
SOLID
 70
     1
 71
     0
 91
        2
 92
        0
 93
        5
 72
     1
 10
22.0
 20
-8.0
 11
24.0
 21
-8.0
 72
     1
 10
24.0
 20
-8.0
 11
26.0
 21
-8.0
 72
     1
 10
26.0
 20
-8.0
 11
28.0
 21
-8.0
 72
     1
 10
28.0
 20
-8.0
 11
25.0
 21
-5.0
 72
     1
 10
25.0
 20
-5.0
 11
22.0
 21
-8.0
 97
        0
 92
        0
 93
        2
 72
     1
 10
30.42053440751121
 20
-2.155252166967083
 11
30.42053440751121
 21
-2.155252166967083
 72
     1
 10
30.42053440751121
 20
-2.155252166967083
 11
30.42053440751121
 21
-2.155252166967083
 97
        0
 75
     0
 76
     1
 98
        0
  0
LINE
  5
336
330
5EE
100
AcDbEntity
  8
layer 4
100
AcDbLine
 10
20.0
 20
-10.0
 30
0.0
 11
20.0
 21
-2.0
 31
0.0
  0
LINE
  5
337
330
5EE
100
AcDbEntity
  8
layer 4
100
AcDbLine
 10
20.0
 20
0.0
 30
0.0
 11
22.0
 21
0.0
 31
0.0
  0
LINE
  5
338
330
5EE
100
AcDbEntity
  8
layer 4
100
AcDbLine
 10
30.0
 20
0.0
 30
0.0
 11
30.0
 21
-2.0
 31
0.0
  0
LINE
  5
339
330
5EE
100
AcDbEntity
  8
layer 4
100
AcDbLine
 10
30.0
 20
-10.0
 30
0.0
 11
26.0
 21
-10.0
 31
0.0
  0
LINE
  5
33A
330
5EE
100
AcDbEntity
  8
layer 4
100
AcDbLine
 10
20.0
 20
-10.0
 30
0.0
 11
22.0
 21
-8.0
 31
0.0
  0
LINE
  5
33B
330
5EE
100
AcDbEntity
  8
layer 5
100
AcDbLine
 10
25.0
 20
-5.0
 30
0.0
 11
28.0
 21
-8.0
 31
0.0
  0
LINE
  5
33C
330
5EE
100
AcDbEntity
  8
layer 4
100
AcDbLine
 10
30.0
 20
-10.0
 30
0.0
 11
29.0
 21
-8.0
 31
0.0
  0
LINE
  5
33D
330
5EE
100
AcDbEntity
  8
layer 4
100
AcDbLine
 10
25.0
 20
0.0
 30
0.0
 11
23.0
 21
-4.0
 31
0.0
  0
LINE
  5
33E
330
5EE
100
AcDbEntity
  8
layer 4
100
AcDbLine
 10
20.0
 20
-4.0
 30
0.0
 11
25.0
 21
0.0
 31
0.0
  0
LINE
  5
33F
330
5EE
100
AcDbEntity
  8
layer 4
100
AcDbLine
 10
25.0
 20
0.0
 30
0.0
 11
30.0
 21
-4.0
 31
0.0
  0
LINE
  5
340
330
5EE
100
AcDbEntity
  8
layer 4
100
AcDbLine
 10
30.0
 20
-4.0
 30
0.0
 11
29.0
 21
-4.0
 31
0.0
  0
LINE
  5
341
330
5EE
100
AcDbEntity
  8
layer 4
100
AcDbLine
 10
23.0
 20
-4.0
 30
0.0
 11
21.0
 21
-4.0
 31
0.0
  0
LINE
  5
342
330
5EE
100
AcDbEntity
  8
layer 5
100
AcDbLine
 10
34.0
 20
-8.0
 30
0.0
 11
36.0
 21
-8.0
 31
0.0
  0
LINE
  5
343
330
5EE
100
AcDbEntity
  8
layer 4
100
AcDbLine
 10
34.0
 20
-8.0
 30
0.0
 11
34.0
 21
-10.0
 31
0.0
  0
LINE
  5
344
330
5EE
100
AcDbEntity
  8
layer 4
100
AcDbLine
 10
36.0
 20
-8.0
 30
0.0
 11
36.0
 21
-10.0
 31
0.0
  0
LINE
  5
345
330
5EE
100
AcDbEntity
  8
layer 4
100
AcDbLine
 10
35.0
 20
-3.0
 30
0.0
 11
34.0
 21
-5.0
 31
0.0
  0
LINE
  5
346
330
5EE
100
AcDbEntity
  8
layer 4
100
AcDbLine
 10
34.0
 20
-5.0
 30
0.0
 11
35.0
 21
-4.0
 31
0.0
  0
LINE
  5
347
330
5EE
100
AcDbEntity
  8
layer 4
100
AcDbLine
 10
35.0
 20
-4.0
 30
0.0
 11
36.0
 21
-5.0
 31
0.0
  0
LINE
  5
348
330
5EE
100
AcDbEntity
  8
layer 4
100
AcDbLine
 10
36.0
 20
-5.0
 30
0.0
 11
35.0
 21
-3.0
 31
0.0
  0
LINE
  5
349
330
5EE
100
AcDbEntity
  8
layer 4
100
AcDbLine
 10
39.0
 20
-4.0
 30
0.0
 11
39.0
 21
-4.0
 31
0.0
  0
HATCH
  5
34A
330
5EE
100
AcDbEntity
  8
layer 4
100
AcDbHatch
 10
0.0
 20
0.0
 30
0.0
210
0.0
220
0.0
230
1.0
  2
SOLID
 70
     1
 71
     0
 91
        1
 92
        0
 93
        4
 72
     1
 10
35.0
 20
-3.0
 11
34.0
 21
-5.0
 72
     1
 10
34.0
 20
-5.0
 11
35.0
 21
-4.0
 72
     1
 10
35.0
 20
-4.0
 11
36.0
 21
-5.0
 72
     1
 10
36.0
 20
-5.0
 11
35.0
 21
-3.0
 97
        0
 75
     0
 76
     1
 98
        0
  0
LINE
  5
34B
330
5EE
100
AcDbEntity
  8
layer 4
100
AcDbLine
 10
32.0
 20
0.0
 30
0.0
 11
38.0
 21
0.0
 31
0.0
  0
LINE
  5
34C
330
5EE
100
AcDbEntity
  8
layer 5
100
AcDbLine
 10
36.0
 20
-8.0
 30
0.0
 11
38.0
 21
-8.0
 31
0.0
  0
LINE
  5
34D
330
5EE
100
AcDbEntity
  8
layer 5
100
AcDbLine
 10
32.0
 20
-8.0
 30
0.0
 11
34.0
 21
-8.0
 31
0.0
  0
LINE
  5
34E
330
5EE
100
AcDbEntity
  8
layer 4
100
AcDbLine
 10
34.0
 20
-10.0
 30
0.0
 11
30.0
 21
-10.0
 31
0.0
  0
LINE
  5
34F
330
5EE
100
AcDbEntity
  8
layer 4
100
AcDbLine
 10
36.0
 20
-10.0
 30
0.0
 11
34.0
 21
-10.0
 31
0.0
  0
HATCH
  5
350
330
5EE
100
AcDbEntity
  8
0
100
AcDbHatch
 10
0.0
 20
0.0
 30
0.0
210
0.0
220
0.0
230
1.0
  2
SOLID
 70
     1
 71
     0
 91
        1
 92
        0
 93
        4
 72
     1
 10
34.0
 20
-8.0
 11
34.0
 21
-10.0
 72
     1
 10
34.0
 20
-10.0
 11
36.0
 21
-10.0
 72
     1
 10
36.0
 20
-10.0
 11
36.0
 21
-8.0
 72
     1
 10
36.0
 20
-8.0
 11
34.0
 21
-8.0
 97
        0
 75
     0
 76
     1
 98
        0
  0
LINE
  5
351
330
5EE
100
AcDbEntity
  8
layer 4
100
AcDbLine
 10
37.0
 20
-4.0
 30
0.0
 11
35.0
 21
0.0
 31
0.0
  0
LINE
  5
352
330
5EE
100
AcDbEntity
  8
layer 4
100
AcDbLine
 10
39.0
 20
-8.0
 30
0.0
 11
39.0
 21
-8.0
 31
0.0
  0
LINE
  5
353
330
5EE
100
AcDbEntity
  8
layer 4
100
AcDbLine
 10
39.0
 20
-8.0
 30
0.0
 11
37.0
 21
-4.0
 31
0.0
  0
LINE
  5
354
330
5EE
100
AcDbEntity
  8
layer 4
100
AcDbLine
 10
39.0
 20
-4.0
 30
0.0
 11
39.0
 21
-8.0
 31
0.0
  0
LINE
  5
355
330
5EE
100
AcDbEntity
  8
layer 4
100
AcDbLine
 10
39.0
 20
-4.0
 30
0.0
 11
37.0
 21
-4.0
 31
0.0
  0
LINE
  5
356
330
5EE
100
AcDbEntity
  8
layer 4
100
AcDbLine
 10
31.0
 20
-8.0
 30
0.0
 11
31.0
 21
-8.0
 31
0.0
  0
LINE
  5
357
330
5EE
100
AcDbEntity
  8
layer 4
100
AcDbLine
 10
33.0
 20
-4.0
 30
0.0
 11
31.0
 21
-8.0
 31
0.0
  0
LINE
  5
358
330
5EE
100
AcDbEntity
  8
layer 4
100
AcDbLine
 10
29.42053440751121
 20
-1.155252166967083
 30
0.0
 11
29.42053440751121
 21
-1.155252166967083
 31
0.0
  0
LINE
  5
359
330
5EE
100
AcDbEntity
  8
layer 4
100
AcDbLine
 10
31.0
 20
-8.0
 30
0.0
 11
30.0
 21
-10.0
 31
0.0
  0
HATCH
  5
35A
330
5EE
100
AcDbEntity
  8
layer 2
100
AcDbHatch
 10
0.0
 20
0.0
 30
0.0
210
0.0
220
0.0
230
1.0
  2
SOLID
 70
     1
 71
     0
 91
        1
 92
        0
 93
        5
 72
     1
 10
39.0
 20
-8.0
 11
39.0
 21
-8.0
 72
     1
 10
39.0
 20
-8.0
 11
37.0
 21
-4.0
 72
     1
 10
37.0
 20
-4.0
 11
39.0
 21
-4.0
 72
     1
 10
39.0
 20
-4.0
 11
39.0
 21
-4.0
 72
     1
 10
39.0
 20
-4.0
 11
39.0
 21
-8.0
 97
        0
 75
     0
 76
     1
 98
        0
  0
LINE
  5
35B
330
5EE
100
AcDbEntity
  8
layer 4
100
AcDbLine
 10
31.0
 20
-4.0
 30
0.0
 11
31.0
 21
-8.0
 31
0.0
  0
LINE
  5
35C
330
5EE
100
AcDbEntity
  8
layer 4
100
AcDbLine
 10
31.0
 20
-4.0
 30
0.0
 11
30.0
 21
-4.0
 31
0.0
  0
HATCH
  5
35D
330
5EE
100
AcDbEntity
  8
0
 62
    18
420
        0
100
AcDbHatch
 10
0.0
 20
0.0
 30
0.0
210
0.0
220
0.0
230
1.0
  2
SOLID
 70
     1
 71
     0
 91
        1
 92
        0
 93
        5
 72
     1
 10
31.0
 20
-4.0
 11
31.0
 21
-4.0
 72
     1
 10
31.0
 20
-4.0
 11
31.0
 21
-4.0
 72
     1
 10
31.0
 20
-4.0
 11
33.0
 21
-4.0
 72
     1
 10
33.0
 20
-4.0
 11
31.0
 21
-8.0
 72
     1
 10
31.0
 20
-8.0
 11
31.0
 21
-4.0
 97
        0
 75
     0
 76
     1
 98
        0
  0
LINE
  5
35E
330
5EE
100
AcDbEntity
  8
layer 4
100
AcDbLine
 10
30.0
 20
-2.0
 30
0.0
 11
30.0
 21
0.0
 31
0.0
  0
LINE
  5
35F
330
5EE
100
AcDbEntity
  8
layer 4
100
AcDbLine
 10
40.0
 20
-2.0
 30
0.0
 11
40.0
 21
-10.0
 31
0.0
  0
LINE
  5
360
330
5EE
100
AcDbEntity
  8
layer 4
100
AcDbLine
 10
38.0
 20
0.0
 30
0.0
 11
40.0
 21
0.0
 31
0.0
  0
LINE
  5
361
330
5EE
100
AcDbEntity
  8
layer 4
100
AcDbLine
 10
32.0
 20
0.0
 30
0.0
 11
32.0
 21
0.0
 31
0.0
  0
HATCH
  5
362
330
5EE
100
AcDbEntity
  8
layer 1
100
AcDbHatch
 10
0.0
 20
0.0
 30
0.0
210
0.0
220
0.0
230
1.0
  2
SOLID
 70
     1
 71
     0
 91
        1
 92
        0
 93
        4
 72
     1
 10
31.0
 20
-4.0
 11
30.0
 21
-4.0
 72
     1
 10
30.0
 20
-4.0
 11
35.0
 21
0.0
 72
     1
 10
35.0
 20
0.0
 11
33.0
 21
-4.0
 72
     1
 10
33.0
 20
-4.0
 11
31.0
 21
-4.0
 97
        0
 75
     0
 76
     1
 98
        0
  0
HATCH
  5
363
330
5EE
100
AcDbEntity
  8
layer 1
100
AcDbHatch
 10
0.0
 20
0.0
 30
0.0
210
0.0
220
0.0
230
1.0
  2
SOLID
 70
     1
 71
     0
 91
        1
 92
        0
 93
        4
 72
     1
 10
37.0
 20
-4.0
 11
35.0
 21
0.0
 72
     1
 10
35.0
 20
0.0
 11
40.0
 21
-4.0
 72
     1
 10
40.0
 20
-4.0
 11
39.0
 21
-4.0
 72
     1
 10
39.0
 20
-4.0
 11
37.0
 21
-4.0
 97
        0
 75
     0
 76
     1
 98
        0
  0
LINE
  5
364
330
5EE
100
AcDbEntity
  8
layer 4
100
AcDbLine
 10
38.0
 20
-8.0
 30
0.0
 11
40.0
 21
-10.0
 31
0.0
  0
LINE
  5
365
330
5EE
100
AcDbEntity
  8
layer 5
100
AcDbLine
 10
32.0
 20
-18.0
 30
0.0
 11
35.0
 21
-15.0
 31
0.0
  0
HATCH
  5
366
330
5EE
100
AcDbEntity
  8
layer 5
100
AcDbHatch
 10
0.0
 20
0.0
 30
0.0
210
0.0
220
0.0
230
1.0
  2
SOLID
 70
     1
 71
     0
 91
        2
 92
        0
 93
        5
 72
     1
 10
32.0
 20
-18.0
 11
34.0
 21
-18.0
 72
     1
 10
34.0
 20
-18.0
 11
36.0
 21
-18.0
 72
     1
 10
36.0
 20
-18.0
 11
38.0
 21
-18.0
 72
     1
 10
38.0
 20
-18.0
 11
35.0
 21
-15.0
 72
     1
 10
35.0
 20
-15.0
 11
32.0
 21
-18.0
 97
        0
 92
        0
 93
        2
 72
     1
 10
40.42053440751121
 20
-12.15525216696708
 11
40.42053440751121
 21
-12.15525216696708
 72
     1
 10
40.42053440751121
 20
-12.15525216696708
 11
40.42053440751121
 21
-12.15525216696708
 97
        0
 75
     0
 76
     1
 98
        0
  0
LINE
  5
367
330
5EE
100
AcDbEntity
  8
layer 4
100
AcDbLine
 10
30.0
 20
-20.0
 30
0.0
 11
30.0
 21
-12.0
 31
0.0
  0
LINE
  5
368
330
5EE
100
AcDbEntity
  8
layer 4
100
AcDbLine
 10
30.0
 20
-10.0
 30
0.0
 11
32.0
 21
-10.0
 31
0.0
  0
LINE
  5
369
330
5EE
100
AcDbEntity
  8
layer 4
100
AcDbLine
 10
40.0
 20
-10.0
 30
0.0
 11
40.0
 21
-12.0
 31
0.0
  0
LINE
  5
36A
330
5EE
100
AcDbEntity
  8
layer 4
100
AcDbLine
 10
40.0
 20
-20.0
 30
0.0
 11
36.0
 21
-20.0
 31
0.0
  0
LINE
  5
36B
330
5EE
100
AcDbEntity
  8
layer 4
100
AcDbLine
 10
30.0
 20
-20.0
 30
0.0
 11
32.0
 21
-18.0
 31
0.0
  0
LINE
  5
36C
330
5EE
100
AcDbEntity
  8
layer 5
100
AcDbLine
 10
35.0
 20
-15.0
 30
0.0
 11
38.0
 21
-18.0
 31
0.0
  0
LINE
  5
36D
330
5EE
100
AcDbEntity
  8
layer 4
100
AcDbLine
 10
40.0
 20
-20.0
 30
0.0
 11
39.0
 21
-18.0
 31
0.0
  0
LINE
  5
36E
330
5EE
100
AcDbEntity
  8
layer 4
100
AcDbLine
 10
35.0
 20
-10.0
 30
0.0
 11
33.0
 21
-14.0
 31
0.0
  0
LINE
  5
36F
330
5EE
100
AcDbEntity
  8
layer 4
100
AcDbLine
 10
30.0
 20
-14.0
 30
0.0
 11
35.0
 21
-10.0
 31
0.0
  0
LINE
  5
370
330
5EE
100
AcDbEntity
  8
layer 4
100
AcDbLine
 10
35.0
 20
-10.0
 30
0.0
 11
40.0
 21
-14.0
 31
0.0
  0
LINE
  5
371
330
5EE
100
AcDbEntity
  8
layer 4
100
AcDbLine
 10
40.0
 20
-14.0
 30
0.0
 11
39.0
 21
-14.0
 31
0.0
  0
LINE
  5
372
330
5EE
100
AcDbEntity
  8
layer 4
100
AcDbLine
 10
33.0
 20
-14.0
 30
0.0
 11
31.0
 21
-14.0
 31
0.0
  0
LINE
  5
373
330
5EE
100
AcDbEntity
  8
layer 4
100
AcDbLine
 10
39.42053440751121
 20
-11.15525216696708
 30
0.0
 11
39.42053440751121
 21
-11.15525216696708
 31
0.0
  0
LINE
  5
374
330
5EE
100
AcDbEntity
  8
layer 4
100
AcDbLine
 10
40.0
 20
-12.0
 30
0.0
 11
40.0
 21
-10.0
 31
0.0
  0
LINE
  5
375
330
5EE
100
AcDbEntity
  8
layer 4
100
AcDbLine
 10
40.0
 20
-20.0
 30
0.0
 11
40.0
 21
-12.0
 31
0.0
  0
LINE
  5
376
330
5EE
100
AcDbEntity
  8
layer 4
100
AcDbLine
 10
0.0
 20
-20.0
 30
0.0
 11
0.0
 21
-12.0
 31
0.0
  0
LINE
  5
377
330
5EE
100
AcDbEntity
  8
layer 4
100
AcDbLine
 10
0.0
 20
-10.0
 30
0.0
 11
2.0
 21
-10.0
 31
0.0
  0
LINE
  5
378
330
5EE
100
AcDbEntity
  8
layer 4
100
AcDbLine
 10
10.0
 20
-10.0
 30
0.0
 11
10.0
 21
-12.0
 31
0.0
  0
LINE
  5
379
330
5EE
100
AcDbEntity
  8
layer 4
100
AcDbLine
 10
10.0
 20
-20.0
 30
0.0
 11
6.0
 21
-20.0
 31
0.0
  0
LINE
  5
37A
330
5EE
100
AcDbEntity
  8
layer 4
100
AcDbLine
 10
0.0
 20
-20.0
 30
0.0
 11
2.0
 21
-18.0
 31
0.0
  0
LINE
  5
37B
330
5EE
100
AcDbEntity
  8
layer 5
100
AcDbLine
 10
5.0
 20
-15.0
 30
0.0
 11
8.0
 21
-18.0
 31
0.0
  0
LINE
  5
37C
330
5EE
100
AcDbEntity
  8
layer 4
100
AcDbLine
 10
10.0
 20
-20.0
 30
0.0
 11
9.0
 21
-18.0
 31
0.0
  0
LINE
  5
37D
330
5EE
100
AcDbEntity
  8
layer 4
100
AcDbLine
 10
5.0
 20
-10.0
 30
0.0
 11
3.0
 21
-14.0
 31
0.0
  0
LINE
  5
37E
330
5EE
100
AcDbEntity
  8
layer 4
100
AcDbLine
 10
0.0
 20
-14.0
 30
0.0
 11
5.0
 21
-10.0
 31
0.0
  0
LINE
  5
37F
330
5EE
100
AcDbEntity
  8
layer 4
100
AcDbLine
 10
1.420534407511212
 20
-7.155252166967083
 30
0.0
 11
1.420534407511212
 21
-7.155252166967083
 31
0.0
  0
LINE
  5
380
330
5EE
100
AcDbEntity
  8
layer 4
100
AcDbLine
 10
5.0
 20
-10.0
 30
0.0
 11
10.0
 21
-14.0
 31
0.0
  0
LINE
  5
381
330
5EE
100
AcDbEntity
  8
layer 4
100
AcDbLine
 10
10.0
 20
-14.0
 30
0.0
 11
9.0
 21
-14.0
 31
0.0
  0
LINE
  5
382
330
5EE
100
AcDbEntity
  8
layer 4
100
AcDbLine
 10
3.0
 20
-14.0
 30
0.0
 11
1.0
 21
-14.0
 31
0.0
  0
LINE
  5
383
330
5EE
100
AcDbEntity
  8
layer 5
100
AcDbLine
 10
4.0
 20
-18.0
 30
0.0
 11
6.0
 21
-18.0
 31
0.0
  0
LINE
  5
384
330
5EE
100
AcDbEntity
  8
layer 4
100
AcDbLine
 10
4.0
 20
-18.0
 30
0.0
 11
4.0
 21
-20.0
 31
0.0
  0
LINE
  5
385
330
5EE
100
AcDbEntity
  8
layer 4
100
AcDbLine
 10
6.0
 20
-18.0
 30
0.0
 11
6.0
 21
-20.0
 31
0.0
  0
LINE
  5
386
330
5EE
100
AcDbEntity
  8
layer 4
100
AcDbLine
 10
5.0
 20
-13.0
 30
0.0
 11
4.0
 21
-15.0
 31
0.0
  0
LINE
  5
387
330
5EE
100
AcDbEntity
  8
layer 4
100
AcDbLine
 10
4.0
 20
-15.0
 30
0.0
 11
5.0
 21
-14.0
 31
0.0
  0
LINE
  5
388
330
5EE
100
AcDbEntity
  8
layer 4
100
AcDbLine
 10
5.0
 20
-14.0
 30
0.0
 11
6.0
 21
-15.0
 31
0.0
  0
LINE
  5
389
330
5EE
100
AcDbEntity
  8
layer 4
100
AcDbLine
 10
6.0
 20
-15.0
 30
0.0
 11
5.0
 21
-13.0
 31
0.0
  0
LINE
  5
38A
330
5EE
100
AcDbEntity
  8
layer 5
100
AcDbLine
 10
10.42053440751121
 20
-12.15525216696708
 30
0.0
 11
10.42053440751121
 21
-12.15525216696708
 31
0.0
  0
LINE
  5
38B
330
5EE
100
AcDbEntity
  8
layer 4
100
AcDbLine
 10
9.0
 20
-14.0
 30
0.0
 11
9.0
 21
-14.0
 31
0.0
  0
HATCH
  5
38C
330
5EE
100
AcDbEntity
  8
layer 4
100
AcDbHatch
 10
0.0
 20
0.0
 30
0.0
210
0.0
220
0.0
230
1.0
  2
SOLID
 70
     1
 71
     0
 91
        1
 92
        0
 93
        4
 72
     1
 10
5.0
 20
-13.0
 11
4.0
 21
-15.0
 72
     1
 10
4.0
 20
-15.0
 11
5.0
 21
-14.0
 72
     1
 10
5.0
 20
-14.0
 11
6.0
 21
-15.0
 72
     1
 10
6.0
 20
-15.0
 11
5.0
 21
-13.0
 97
        0
 75
     0
 76
     1
 98
        0
  0
LINE
  5
38D
330
5EE
100
AcDbEntity
  8
layer 4
100
AcDbLine
 10
2.0
 20
-10.0
 30
0.0
 11
8.0
 21
-10.0
 31
0.0
  0
LINE
  5
38E
330
5EE
100
AcDbEntity
  8
layer 5
100
AcDbLine
 10
6.0
 20
-18.0
 30
0.0
 11
8.0
 21
-18.0
 31
0.0
  0
LINE
  5
38F
330
5EE
100
AcDbEntity
  8
layer 5
100
AcDbLine
 10
2.0
 20
-18.0
 30
0.0
 11
4.0
 21
-18.0
 31
0.0
  0
LINE
  5
390
330
5EE
100
AcDbEntity
  8
layer 4
100
AcDbLine
 10
4.0
 20
-20.0
 30
0.0
 11
0.0
 21
-20.0
 31
0.0
  0
LINE
  5
391
330
5EE
100
AcDbEntity
  8
layer 4
100
AcDbLine
 10
6.0
 20
-20.0
 30
0.0
 11
4.0
 21
-20.0
 31
0.0
  0
HATCH
  5
392
330
5EE
100
AcDbEntity
  8
0
100
AcDbHatch
 10
0.0
 20
0.0
 30
0.0
210
0.0
220
0.0
230
1.0
  2
SOLID
 70
     1
 71
     0
 91
        1
 92
        0
 93
        4
 72
     1
 10
4.0
 20
-18.0
 11
4.0
 21
-20.0
 72
     1
 10
4.0
 20
-20.0
 11
6.0
 21
-20.0
 72
     1
 10
6.0
 20
-20.0
 11
6.0
 21
-18.0
 72
     1
 10
6.0
 20
-18.0
 11
4.0
 21
-18.0
 97
        0
 75
     0
 76
     1
 98
        0
  0
LINE
  5
393
330
5EE
100
AcDbEntity
  8
layer 4
100
AcDbLine
 10
7.0
 20
-14.0
 30
0.0
 11
5.0
 21
-10.0
 31
0.0
  0
LINE
  5
394
330
5EE
100
AcDbEntity
  8
layer 4
100
AcDbLine
 10
9.0
 20
-18.0
 30
0.0
 11
9.0
 21
-18.0
 31
0.0
  0
LINE
  5
395
330
5EE
100
AcDbEntity
  8
layer 4
100
AcDbLine
 10
9.0
 20
-18.0
 30
0.0
 11
7.0
 21
-14.0
 31
0.0
  0
LINE
  5
396
330
5EE
100
AcDbEntity
  8
layer 4
100
AcDbLine
 10
9.0
 20
-14.0
 30
0.0
 11
9.0
 21
-18.0
 31
0.0
  0
LINE
  5
397
330
5EE
100
AcDbEntity
  8
layer 4
100
AcDbLine
 10
9.0
 20
-14.0
 30
0.0
 11
7.0
 21
-14.0
 31
0.0
  0
LINE
  5
398
330
5EE
100
AcDbEntity
  8
layer 5
100
AcDbLine
 10
10.42053440751121
 20
-12.15525216696708
 30
0.0
 11
10.42053440751121
 21
-12.15525216696708
 31
0.0
  0
LINE
  5
399
330
5EE
100
AcDbEntity
  8
layer 4
100
AcDbLine
 10
1.0
 20
-18.0
 30
0.0
 11
1.0
 21
-18.0
 31
0.0
  0
LINE
  5
39A
330
5EE
100
AcDbEntity
  8
layer 4
100
AcDbLine
 10
3.0
 20
-14.0
 30
0.0
 11
1.0
 21
-18.0
 31
0.0
  0
LINE
  5
39B
330
5EE
100
AcDbEntity
  8
layer 4
100
AcDbLine
 10
-0.5794655924887877
 20
-11.15525216696708
 30
0.0
 11
-0.5794655924887877
 21
-11.15525216696708
 31
0.0
  0
LINE
  5
39C
330
5EE
100
AcDbEntity
  8
layer 4
100
AcDbLine
 10
1.0
 20
-18.0
 30
0.0
 11
0.0
 21
-20.0
 31
0.0
  0
HATCH
  5
39D
330
5EE
100
AcDbEntity
  8
layer 2
100
AcDbHatch
 10
0.0
 20
0.0
 30
0.0
210
0.0
220
0.0
230
1.0
  2
SOLID
 70
     1
 71
     0
 91
        1
 92
        0
 93
        5
 72
     1
 10
9.0
 20
-18.0
 11
9.0
 21
-18.0
 72
     1
 10
9.0
 20
-18.0
 11
7.0
 21
-14.0
 72
     1
 10
7.0
 20
-14.0
 11
9.0
 21
-14.0
 72
     1
 10
9.0
 20
-14.0
 11
9.0
 21
-14.0
 72
     1
 10
9.0
 20
-14.0
 11
9.0
 21
-18.0
 97
        0
 75
     0
 76
     1
 98
        0
  0
LINE
  5
39E
330
5EE
100
AcDbEntity
  8
layer 4
100
AcDbLine
 10
1.0
 20
-14.0
 30
0.0
 11
1.0
 21
-18.0
 31
0.0
  0
LINE
  5
39F
330
5EE
100
AcDbEntity
  8
layer 4
100
AcDbLine
 10
1.0
 20
-14.0
 30
0.0
 11
0.0
 21
-14.0
 31
0.0
  0
HATCH
  5
3A0
330
5EE
100
AcDbEntity
  8
0
 62
    18
420
        0
100
AcDbHatch
 10
0.0
 20
0.0
 30
0.0
210
0.0
220
0.0
230
1.0
  2
SOLID
 70
     1
 71
     0
 91
        1
 92
        0
 93
        5
 72
     1
 10
1.0
 20
-14.0
 11
1.0
 21
-14.0
 72
     1
 10
1.0
 20
-14.0
 11
1.0
 21
-14.0
 72
     1
 10
1.0
 20
-14.0
 11
3.0
 21
-14.0
 72
     1
 10
3.0
 20
-14.0
 11
1.0
 21
-18.0
 72
     1
 10
1.0
 20
-18.0
 11
1.0
 21
-14.0
 97
        0
 75
     0
 76
     1
 98
        0
  0
LINE
  5
3A1
330
5EE
100
AcDbEntity
  8
layer 4
100
AcDbLine
 10
0.0
 20
-12.0
 30
0.0
 11
0.0
 21
-10.0
 31
0.0
  0
LINE
  5
3A2
330
5EE
100
AcDbEntity
  8
layer 4
100
AcDbLine
 10
10.0
 20
-12.0
 30
0.0
 11
10.0
 21
-20.0
 31
0.0
  0
LINE
  5
3A3
330
5EE
100
AcDbEntity
  8
layer 4
100
AcDbLine
 10
8.0
 20
-10.0
 30
0.0
 11
10.0
 21
-10.0
 31
0.0
  0
LINE
  5
3A4
330
5EE
100
AcDbEntity
  8
layer 4
100
AcDbLine
 10
2.0
 20
-10.0
 30
0.0
 11
2.0
 21
-10.0
 31
0.0
  0
HATCH
  5
3A5
330
5EE
100
AcDbEntity
  8
layer 1
100
AcDbHatch
 10
0.0
 20
0.0
 30
0.0
210
0.0
220
0.0
230
1.0
  2
SOLID
 70
     1
 71
     0
 91
        1
 92
        0
 93
        4
 72
     1
 10
1.0
 20
-14.0
 11
0.0
 21
-14.0
 72
     1
 10
0.0
 20
-14.0
 11
5.0
 21
-10.0
 72
     1
 10
5.0
 20
-10.0
 11
3.0
 21
-14.0
 72
     1
 10
3.0
 20
-14.0
 11
1.0
 21
-14.0
 97
        0
 75
     0
 76
     1
 98
        0
  0
HATCH
  5
3A6
330
5EE
100
AcDbEntity
  8
layer 1
100
AcDbHatch
 10
0.0
 20
0.0
 30
0.0
210
0.0
220
0.0
230
1.0
  2
SOLID
 70
     1
 71
     0
 91
        1
 92
        0
 93
        4
 72
     1
 10
7.0
 20
-14.0
 11
5.0
 21
-10.0
 72
     1
 10
5.0
 20
-10.0
 11
10.0
 21
-14.0
 72
     1
 10
10.0
 20
-14.0
 11
9.0
 21
-14.0
 72
     1
 10
9.0
 20
-14.0
 11
7.0
 21
-14.0
 97
        0
 75
     0
 76
     1
 98
        0
  0
LINE
  5
3A7
330
5EE
100
AcDbEntity
  8
layer 4
100
AcDbLine
 10
8.0
 20
-18.0
 30
0.0
 11
10.0
 21
-20.0
 31
0.0
  0
LINE
  5
3A8
330
5EE
100
AcDbEntity
  8
layer 5
100
AcDbLine
 10
2.0
 20
-18.0
 30
0.0
 11
5.0
 21
-15.0
 31
0.0
  0
HATCH
  5
3A9
330
5EE
100
AcDbEntity
  8
layer 5
100
AcDbHatch
 10
0.0
 20
0.0
 30
0.0
210
0.0
220
0.0
230
1.0
  2
SOLID
 70
     1
 71
     0
 91
        2
 92
        0
 93
        5
 72
     1
 10
2.0
 20
-18.0
 11
4.0
 21
-18.0
 72
     1
 10
4.0
 20
-18.0
 11
6.0
 21
-18.0
 72
     1
 10
6.0
 20
-18.0
 11
8.0
 21
-18.0
 72
     1
 10
8.0
 20
-18.0
 11
5.0
 21
-15.0
 72
     1
 10
5.0
 20
-15.0
 11
2.0
 21
-18.0
 97
        0
 92
        0
 93
        2
 72
     1
 10
10.42053440751121
 20
-12.15525216696708
 11
10.42053440751121
 21
-12.15525216696708
 72
     1
 10
10.42053440751121
 20
-12.15525216696708
 11
10.42053440751121
 21
-12.15525216696708
 97
        0
 75
     0
 76
     1
 98
        0
  0
LINE
  5
3AA
330
5EE
100
AcDbEntity
  8
layer 5
100
AcDbLine
 10
14.0
 20
-18.0
 30
0.0
 11
16.0
 21
-18.0
 31
0.0
  0
LINE
  5
3AB
330
5EE
100
AcDbEntity
  8
layer 4
100
AcDbLine
 10
14.0
 20
-18.0
 30
0.0
 11
14.0
 21
-20.0
 31
0.0
  0
LINE
  5
3AC
330
5EE
100
AcDbEntity
  8
layer 4
100
AcDbLine
 10
16.0
 20
-18.0
 30
0.0
 11
16.0
 21
-20.0
 31
0.0
  0
LINE
  5
3AD
330
5EE
100
AcDbEntity
  8
layer 4
100
AcDbLine
 10
15.0
 20
-13.0
 30
0.0
 11
14.0
 21
-15.0
 31
0.0
  0
LINE
  5
3AE
330
5EE
100
AcDbEntity
  8
layer 4
100
AcDbLine
 10
14.0
 20
-15.0
 30
0.0
 11
15.0
 21
-14.0
 31
0.0
  0
LINE
  5
3AF
330
5EE
100
AcDbEntity
  8
layer 4
100
AcDbLine
 10
15.0
 20
-14.0
 30
0.0
 11
16.0
 21
-15.0
 31
0.0
  0
LINE
  5
3B0
330
5EE
100
AcDbEntity
  8
layer 4
100
AcDbLine
 10
16.0
 20
-15.0
 30
0.0
 11
15.0
 21
-13.0
 31
0.0
  0
LINE
  5
3B1
330
5EE
100
AcDbEntity
  8
layer 5
100
AcDbLine
 10
20.42053440751121
 20
-12.15525216696708
 30
0.0
 11
20.42053440751121
 21
-12.15525216696708
 31
0.0
  0
LINE
  5
3B2
330
5EE
100
AcDbEntity
  8
layer 4
100
AcDbLine
 10
19.0
 20
-14.0
 30
0.0
 11
19.0
 21
-14.0
 31
0.0
  0
HATCH
  5
3B3
330
5EE
100
AcDbEntity
  8
layer 4
100
AcDbHatch
 10
0.0
 20
0.0
 30
0.0
210
0.0
220
0.0
230
1.0
  2
SOLID
 70
     1
 71
     0
 91
        1
 92
        0
 93
        4
 72
     1
 10
15.0
 20
-13.0
 11
14.0
 21
-15.0
 72
     1
 10
14.0
 20
-15.0
 11
15.0
 21
-14.0
 72
     1
 10
15.0
 20
-14.0
 11
16.0
 21
-15.0
 72
     1
 10
16.0
 20
-15.0
 11
15.0
 21
-13.0
 97
        0
 75
     0
 76
     1
 98
        0
  0
LINE
  5
3B4
330
5EE
100
AcDbEntity
  8
layer 4
100
AcDbLine
 10
12.0
 20
-10.0
 30
0.0
 11
18.0
 21
-10.0
 31
0.0
  0
LINE
  5
3B5
330
5EE
100
AcDbEntity
  8
layer 5
100
AcDbLine
 10
16.0
 20
-18.0
 30
0.0
 11
18.0
 21
-18.0
 31
0.0
  0
LINE
  5
3B6
330
5EE
100
AcDbEntity
  8
layer 5
100
AcDbLine
 10
12.0
 20
-18.0
 30
0.0
 11
14.0
 21
-18.0
 31
0.0
  0
LINE
  5
3B7
330
5EE
100
AcDbEntity
  8
layer 4
100
AcDbLine
 10
14.0
 20
-20.0
 30
0.0
 11
10.0
 21
-20.0
 31
0.0
  0
LINE
  5
3B8
330
5EE
100
AcDbEntity
  8
layer 4
100
AcDbLine
 10
16.0
 20
-20.0
 30
0.0
 11
14.0
 21
-20.0
 31
0.0
  0
HATCH
  5
3B9
330
5EE
100
AcDbEntity
  8
0
100
AcDbHatch
 10
0.0
 20
0.0
 30
0.0
210
0.0
220
0.0
230
1.0
  2
SOLID
 70
     1
 71
     0
 91
        1
 92
        0
 93
        4
 72
     1
 10
14.0
 20
-18.0
 11
14.0
 21
-20.0
 72
     1
 10
14.0
 20
-20.0
 11
16.0
 21
-20.0
 72
     1
 10
16.0
 20
-20.0
 11
16.0
 21
-18.0
 72
     1
 10
16.0
 20
-18.0
 11
14.0
 21
-18.0
 97
        0
 75
     0
 76
     1
 98
        0
  0
LINE
  5
3BA
330
5EE
100
AcDbEntity
  8
layer 4
100
AcDbLine
 10
17.0
 20
-14.0
 30
0.0
 11
15.0
 21
-10.0
 31
0.0
  0
LINE
  5
3BB
330
5EE
100
AcDbEntity
  8
layer 4
100
AcDbLine
 10
19.0
 20
-18.0
 30
0.0
 11
19.0
 21
-18.0
 31
0.0
  0
LINE
  5
3BC
330
5EE
100
AcDbEntity
  8
layer 4
100
AcDbLine
 10
19.0
 20
-18.0
 30
0.0
 11
17.0
 21
-14.0
 31
0.0
  0
LINE
  5
3BD
330
5EE
100
AcDbEntity
  8
layer 4
100
AcDbLine
 10
19.0
 20
-14.0
 30
0.0
 11
19.0
 21
-18.0
 31
0.0
  0
LINE
  5
3BE
330
5EE
100
AcDbEntity
  8
layer 4
100
AcDbLine
 10
19.0
 20
-14.0
 30
0.0
 11
17.0
 21
-14.0
 31
0.0
  0
LINE
  5
3BF
330
5EE
100
AcDbEntity
  8
layer 5
100
AcDbLine
 10
20.42053440751121
 20
-12.15525216696708
 30
0.0
 11
20.42053440751121
 21
-12.15525216696708
 31
0.0
  0
LINE
  5
3C0
330
5EE
100
AcDbEntity
  8
layer 4
100
AcDbLine
 10
11.0
 20
-18.0
 30
0.0
 11
11.0
 21
-18.0
 31
0.0
  0
LINE
  5
3C1
330
5EE
100
AcDbEntity
  8
layer 4
100
AcDbLine
 10
13.0
 20
-14.0
 30
0.0
 11
11.0
 21
-18.0
 31
0.0
  0
LINE
  5
3C2
330
5EE
100
AcDbEntity
  8
layer 4
100
AcDbLine
 10
9.420534407511212
 20
-11.15525216696708
 30
0.0
 11
9.420534407511212
 21
-11.15525216696708
 31
0.0
  0
LINE
  5
3C3
330
5EE
100
AcDbEntity
  8
layer 4
100
AcDbLine
 10
11.0
 20
-18.0
 30
0.0
 11
10.0
 21
-20.0
 31
0.0
  0
HATCH
  5
3C4
330
5EE
100
AcDbEntity
  8
layer 2
100
AcDbHatch
 10
0.0
 20
0.0
 30
0.0
210
0.0
220
0.0
230
1.0
  2
SOLID
 70
     1
 71
     0
 91
        1
 92
        0
 93
        5
 72
     1
 10
19.0
 20
-18.0
 11
19.0
 21
-18.0
 72
     1
 10
19.0
 20
-18.0
 11
17.0
 21
-14.0
 72
     1
 10
17.0
 20
-14.0
 11
19.0
 21
-14.0
 72
     1
 10
19.0
 20
-14.0
 11
19.0
 21
-14.0
 72
     1
 10
19.0
 20
-14.0
 11
19.0
 21
-18.0
 97
        0
 75
     0
 76
     1
 98
        0
  0
LINE
  5
3C5
330
5EE
100
AcDbEntity
  8
layer 4
100
AcDbLine
 10
11.0
 20
-14.0
 30
0.0
 11
11.0
 21
-18.0
 31
0.0
  0
LINE
  5
3C6
330
5EE
100
AcDbEntity
  8
layer 4
100
AcDbLine
 10
11.0
 20
-14.0
 30
0.0
 11
10.0
 21
-14.0
 31
0.0
  0
HATCH
  5
3C7
330
5EE
100
AcDbEntity
  8
0
 62
    18
420
        0
100
AcDbHatch
 10
0.0
 20
0.0
 30
0.0
210
0.0
220
0.0
230
1.0
  2
SOLID
 70
     1
 71
     0
 91
        1
 92
        0
 93
        5
 72
     1
 10
11.0
 20
-14.0
 11
11.0
 21
-14.0
 72
     1
 10
11.0
 20
-14.0
 11
11.0
 21
-14.0
 72
     1
 10
11.0
 20
-14.0
 11
13.0
 21
-14.0
 72
     1
 10
13.0
 20
-14.0
 11
11.0
 21
-18.0
 72
     1
 10
11.0
 20
-18.0
 11
11.0
 21
-14.0
 97
        0
 75
     0
 76
     1
 98
        0
  0
LINE
  5
3C8
330
5EE
100
AcDbEntity
  8
layer 4
100
AcDbLine
 10
10.0
 20
-12.0
 30
0.0
 11
10.0
 21
-10.0
 31
0.0
  0
LINE
  5
3C9
330
5EE
100
AcDbEntity
  8
layer 4
100
AcDbLine
 10
20.0
 20
-12.0
 30
0.0
 11
20.0
 21
-20.0
 31
0.0
  0
LINE
  5
3CA
330
5EE
100
AcDbEntity
  8
layer 4
100
AcDbLine
 10
18.0
 20
-10.0
 30
0.0
 11
20.0
 21
-10.0
 31
0.0
  0
LINE
  5
3CB
330
5EE
100
AcDbEntity
  8
layer 4
100
AcDbLine
 10
12.0
 20
-10.0
 30
0.0
 11
12.0
 21
-10.0
 31
0.0
  0
HATCH
  5
3CC
330
5EE
100
AcDbEntity
  8
layer 1
100
AcDbHatch
 10
0.0
 20
0.0
 30
0.0
210
0.0
220
0.0
230
1.0
  2
SOLID
 70
     1
 71
     0
 91
        1
 92
        0
 93
        4
 72
     1
 10
11.0
 20
-14.0
 11
10.0
 21
-14.0
 72
     1
 10
10.0
 20
-14.0
 11
15.0
 21
-10.0
 72
     1
 10
15.0
 20
-10.0
 11
13.0
 21
-14.0
 72
     1
 10
13.0
 20
-14.0
 11
11.0
 21
-14.0
 97
        0
 75
     0
 76
     1
 98
        0
  0
HATCH
  5
3CD
330
5EE
100
AcDbEntity
  8
layer 1
100
AcDbHatch
 10
0.0
 20
0.0
 30
0.0
210
0.0
220
0.0
230
1.0
  2
SOLID
 70
     1
 71
     0
 91
        1
 92
        0
 93
        4
 72
     1
 10
17.0
 20
-14.0
 11
15.0
 21
-10.0
 72
     1
 10
15.0
 20
-10.0
 11
20.0
 21
-14.0
 72
     1
 10
20.0
 20
-14.0
 11
19.0
 21
-14.0
 72
     1
 10
19.0
 20
-14.0
 11
17.0
 21
-14.0
 97
        0
 75
     0
 76
     1
 98
        0
  0
LINE
  5
3CE
330
5EE
100
AcDbEntity
  8
layer 4
100
AcDbLine
 10
18.0
 20
-18.0
 30
0.0
 11
20.0
 21
-20.0
 31
0.0
  0
LINE
  5
3CF
330
5EE
100
AcDbEntity
  8
layer 5
100
AcDbLine
 10
12.0
 20
-18.0
 30
0.0
 11
15.0
 21
-15.0
 31
0.0
  0
HATCH
  5
3D0
330
5EE
100
AcDbEntity
  8
layer 5
100
AcDbHatch
 10
0.0
 20
0.0
 30
0.0
210
0.0
220
0.0
230
1.0
  2
SOLID
 70
     1
 71
     0
 91
        2
 92
        0
 93
        5
 72
     1
 10
12.0
 20
-18.0
 11
14.0
 21
-18.0
 72
     1
 10
14.0
 20
-18.0
 11
16.0
 21
-18.0
 72
     1
 10
16.0
 20
-18.0
 11
18.0
 21
-18.0
 72
     1
 10
18.0
 20
-18.0
 11
15.0
 21
-15.0
 72
     1
 10
15.0
 20
-15.0
 11
12.0
 21
-18.0
 97
        0
 92
        0
 93
        2
 72
     1
 10
20.42053440751121
 20
-12.15525216696708
 11
20.42053440751121
 21
-12.15525216696708
 72
     1
 10
20.42053440751121
 20
-12.15525216696708
 11
20.42053440751121
 21
-12.15525216696708
 97
        0
 75
     0
 76
     1
 98
        0
  0
LINE
  5
3D1
330
5EE
100
AcDbEntity
  8
layer 4
100
AcDbLine
 10
10.0
 20
-20.0
 30
0.0
 11
10.0
 21
-12.0
 31
0.0
  0
LINE
  5
3D2
330
5EE
100
AcDbEntity
  8
layer 4
100
AcDbLine
 10
10.0
 20
-10.0
 30
0.0
 11
12.0
 21
-10.0
 31
0.0
  0
LINE
  5
3D3
330
5EE
100
AcDbEntity
  8
layer 4
100
AcDbLine
 10
20.0
 20
-10.0
 30
0.0
 11
20.0
 21
-12.0
 31
0.0
  0
LINE
  5
3D4
330
5EE
100
AcDbEntity
  8
layer 4
100
AcDbLine
 10
20.0
 20
-20.0
 30
0.0
 11
16.0
 21
-20.0
 31
0.0
  0
LINE
  5
3D5
330
5EE
100
AcDbEntity
  8
layer 4
100
AcDbLine
 10
10.0
 20
-20.0
 30
0.0
 11
12.0
 21
-18.0
 31
0.0
  0
LINE
  5
3D6
330
5EE
100
AcDbEntity
  8
layer 5
100
AcDbLine
 10
15.0
 20
-15.0
 30
0.0
 11
18.0
 21
-18.0
 31
0.0
  0
LINE
  5
3D7
330
5EE
100
AcDbEntity
  8
layer 4
100
AcDbLine
 10
20.0
 20
-20.0
 30
0.0
 11
19.0
 21
-18.0
 31
0.0
  0
LINE
  5
3D8
330
5EE
100
AcDbEntity
  8
layer 4
100
AcDbLine
 10
15.0
 20
-10.0
 30
0.0
 11
13.0
 21
-14.0
 31
0.0
  0
LINE
  5
3D9
330
5EE
100
AcDbEntity
  8
layer 4
100
AcDbLine
 10
10.0
 20
-14.0
 30
0.0
 11
15.0
 21
-10.0
 31
0.0
  0
LINE
  5
3DA
330
5EE
100
AcDbEntity
  8
layer 4
100
AcDbLine
 10
15.0
 20
-10.0
 30
0.0
 11
20.0
 21
-14.0
 31
0.0
  0
LINE
  5
3DB
330
5EE
100
AcDbEntity
  8
layer 4
100
AcDbLine
 10
20.0
 20
-14.0
 30
0.0
 11
19.0
 21
-14.0
 31
0.0
  0
LINE
  5
3DC
330
5EE
100
AcDbEntity
  8
layer 4
100
AcDbLine
 10
13.0
 20
-14.0
 30
0.0
 11
11.0
 21
-14.0
 31
0.0
  0
LINE
  5
3DD
330
5EE
100
AcDbEntity
  8
layer 5
100
AcDbLine
 10
24.0
 20
-18.0
 30
0.0
 11
26.0
 21
-18.0
 31
0.0
  0
LINE
  5
3DE
330
5EE
100
AcDbEntity
  8
layer 4
100
AcDbLine
 10
24.0
 20
-18.0
 30
0.0
 11
24.0
 21
-20.0
 31
0.0
  0
LINE
  5
3DF
330
5EE
100
AcDbEntity
  8
layer 4
100
AcDbLine
 10
26.0
 20
-18.0
 30
0.0
 11
26.0
 21
-20.0
 31
0.0
  0
LINE
  5
3E0
330
5EE
100
AcDbEntity
  8
layer 4
100
AcDbLine
 10
25.0
 20
-13.0
 30
0.0
 11
24.0
 21
-15.0
 31
0.0
  0
LINE
  5
3E1
330
5EE
100
AcDbEntity
  8
layer 4
100
AcDbLine
 10
24.0
 20
-15.0
 30
0.0
 11
25.0
 21
-14.0
 31
0.0
  0
LINE
  5
3E2
330
5EE
100
AcDbEntity
  8
layer 4
100
AcDbLine
 10
25.0
 20
-14.0
 30
0.0
 11
26.0
 21
-15.0
 31
0.0
  0
LINE
  5
3E3
330
5EE
100
AcDbEntity
  8
layer 4
100
AcDbLine
 10
26.0
 20
-15.0
 30
0.0
 11
25.0
 21
-13.0
 31
0.0
  0
LINE
  5
3E4
330
5EE
100
AcDbEntity
  8
layer 5
100
AcDbLine
 10
30.42053440751121
 20
-12.15525216696708
 30
0.0
 11
30.42053440751121
 21
-12.15525216696708
 31
0.0
  0
LINE
  5
3E5
330
5EE
100
AcDbEntity
  8
layer 4
100
AcDbLine
 10
29.0
 20
-14.0
 30
0.0
 11
29.0
 21
-14.0
 31
0.0
  0
HATCH
  5
3E6
330
5EE
100
AcDbEntity
  8
layer 4
100
AcDbHatch
 10
0.0
 20
0.0
 30
0.0
210
0.0
220
0.0
230
1.0
  2
SOLID
 70
     1
 71
     0
 91
        1
 92
        0
 93
        4
 72
     1
 10
25.0
 20
-13.0
 11
24.0
 21
-15.0
 72
     1
 10
24.0
 20
-15.0
 11
25.0
 21
-14.0
 72
     1
 10
25.0
 20
-14.0
 11
26.0
 21
-15.0
 72
     1
 10
26.0
 20
-15.0
 11
25.0
 21
-13.0
 97
        0
 75
     0
 76
     1
 98
        0
  0
LINE
  5
3E7
330
5EE
100
AcDbEntity
  8
layer 4
100
AcDbLine
 10
22.0
 20
-10.0
 30
0.0
 11
28.0
 21
-10.0
 31
0.0
  0
LINE
  5
3E8
330
5EE
100
AcDbEntity
  8
layer 5
100
AcDbLine
 10
26.0
 20
-18.0
 30
0.0
 11
28.0
 21
-18.0
 31
0.0
  0
LINE
  5
3E9
330
5EE
100
AcDbEntity
  8
layer 5
100
AcDbLine
 10
22.0
 20
-18.0
 30
0.0
 11
24.0
 21
-18.0
 31
0.0
  0
LINE
  5
3EA
330
5EE
100
AcDbEntity
  8
layer 4
100
AcDbLine
 10
24.0
 20
-20.0
 30
0.0
 11
20.0
 21
-20.0
 31
0.0
  0
LINE
  5
3EB
330
5EE
100
AcDbEntity
  8
layer 4
100
AcDbLine
 10
26.0
 20
-20.0
 30
0.0
 11
24.0
 21
-20.0
 31
0.0
  0
HATCH
  5
3EC
330
5EE
100
AcDbEntity
  8
0
100
AcDbHatch
 10
0.0
 20
0.0
 30
0.0
210
0.0
220
0.0
230
1.0
  2
SOLID
 70
     1
 71
     0
 91
        1
 92
        0
 93
        4
 72
     1
 10
24.0
 20
-18.0
 11
24.0
 21
-20.0
 72
     1
 10
24.0
 20
-20.0
 11
26.0
 21
-20.0
 72
     1
 10
26.0
 20
-20.0
 11
26.0
 21
-18.0
 72
     1
 10
26.0
 20
-18.0
 11
24.0
 21
-18.0
 97
        0
 75
     0
 76
     1
 98
        0
  0
LINE
  5
3ED
330
5EE
100
AcDbEntity
  8
layer 4
100
AcDbLine
 10
27.0
 20
-14.0
 30
0.0
 11
25.0
 21
-10.0
 31
0.0
  0
LINE
  5
3EE
330
5EE
100
AcDbEntity
  8
layer 4
100
AcDbLine
 10
29.0
 20
-18.0
 30
0.0
 11
29.0
 21
-18.0
 31
0.0
  0
LINE
  5
3EF
330
5EE
100
AcDbEntity
  8
layer 4
100
AcDbLine
 10
29.0
 20
-18.0
 30
0.0
 11
27.0
 21
-14.0
 31
0.0
  0
LINE
  5
3F0
330
5EE
100
AcDbEntity
  8
layer 4
100
AcDbLine
 10
29.0
 20
-14.0
 30
0.0
 11
29.0
 21
-18.0
 31
0.0
  0
LINE
  5
3F1
330
5EE
100
AcDbEntity
  8
layer 4
100
AcDbLine
 10
29.0
 20
-14.0
 30
0.0
 11
27.0
 21
-14.0
 31
0.0
  0
LINE
  5
3F2
330
5EE
100
AcDbEntity
  8
layer 5
100
AcDbLine
 10
30.42053440751121
 20
-12.15525216696708
 30
0.0
 11
30.42053440751121
 21
-12.15525216696708
 31
0.0
  0
LINE
  5
3F3
330
5EE
100
AcDbEntity
  8
layer 4
100
AcDbLine
 10
21.0
 20
-18.0
 30
0.0
 11
21.0
 21
-18.0
 31
0.0
  0
LINE
  5
3F4
330
5EE
100
AcDbEntity
  8
layer 4
100
AcDbLine
 10
23.0
 20
-14.0
 30
0.0
 11
21.0
 21
-18.0
 31
0.0
  0
LINE
  5
3F5
330
5EE
100
AcDbEntity
  8
layer 4
100
AcDbLine
 10
19.42053440751121
 20
-11.15525216696708
 30
0.0
 11
19.42053440751121
 21
-11.15525216696708
 31
0.0
  0
LINE
  5
3F6
330
5EE
100
AcDbEntity
  8
layer 4
100
AcDbLine
 10
21.0
 20
-18.0
 30
0.0
 11
20.0
 21
-20.0
 31
0.0
  0
HATCH
  5
3F7
330
5EE
100
AcDbEntity
  8
layer 2
100
AcDbHatch
 10
0.0
 20
0.0
 30
0.0
210
0.0
220
0.0
230
1.0
  2
SOLID
 70
     1
 71
     0
 91
        1
 92
        0
 93
        5
 72
     1
 10
29.0
 20
-18.0
 11
29.0
 21
-18.0
 72
     1
 10
29.0
 20
-18.0
 11
27.0
 21
-14.0
 72
     1
 10
27.0
 20
-14.0
 11
29.0
 21
-14.0
 72
     1
 10
29.0
 20
-14.0
 11
29.0
 21
-14.0
 72
     1
 10
29.0
 20
-14.0
 11
29.0
 21
-18.0
 97
        0
 75
     0
 76
     1
 98
        0
  0
LINE
  5
3F8
330
5EE
100
AcDbEntity
  8
layer 4
100
AcDbLine
 10
21.0
 20
-14.0
 30
0.0
 11
21.0
 21
-18.0
 31
0.0
  0
LINE
  5
3F9
330
5EE
100
AcDbEntity
  8
layer 4
100
AcDbLine
 10
21.0
 20
-14.0
 30
0.0
 11
20.0
 21
-14.0
 31
0.0
  0
HATCH
  5
3FA
330
5EE
100
AcDbEntity
  8
0
 62
    18
420
        0
100
AcDbHatch
 10
0.0
 20
0.0
 30
0.0
210
0.0
220
0.0
230
1.0
  2
SOLID
 70
     1
 71
     0
 91
        1
 92
        0
 93
        5
 72
     1
 10
21.0
 20
-14.0
 11
21.0
 21
-14.0
 72
     1
 10
21.0
 20
-14.0
 11
21.0
 21
-14.0
 72
     1
 10
21.0
 20
-14.0
 11
23.0
 21
-14.0
 72
     1
 10
23.0
 20
-14.0
 11
21.0
 21
-18.0
 72
     1
 10
21.0
 20
-18.0
 11
21.0
 21
-14.0
 97
        0
 75
     0
 76
     1
 98
        0
  0
LINE
  5
3FB
330
5EE
100
AcDbEntity
  8
layer 4
100
AcDbLine
 10
20.0
 20
-12.0
 30
0.0
 11
20.0
 21
-10.0
 31
0.0
  0
LINE
  5
3FC
330
5EE
100
AcDbEntity
  8
layer 4
100
AcDbLine
 10
30.0
 20
-12.0
 30
0.0
 11
30.0
 21
-20.0
 31
0.0
  0
LINE
  5
3FD
330
5EE
100
AcDbEntity
  8
layer 4
100
AcDbLine
 10
28.0
 20
-10.0
 30
0.0
 11
30.0
 21
-10.0
 31
0.0
  0
LINE
  5
3FE
330
5EE
100
AcDbEntity
  8
layer 4
100
AcDbLine
 10
22.0
 20
-10.0
 30
0.0
 11
22.0
 21
-10.0
 31
0.0
  0
HATCH
  5
3FF
330
5EE
100
AcDbEntity
  8
layer 1
100
AcDbHatch
 10
0.0
 20
0.0
 30
0.0
210
0.0
220
0.0
230
1.0
  2
SOLID
 70
     1
 71
     0
 91
        1
 92
        0
 93
        4
 72
     1
 10
21.0
 20
-14.0
 11
20.0
 21
-14.0
 72
     1
 10
20.0
 20
-14.0
 11
25.0
 21
-10.0
 72
     1
 10
25.0
 20
-10.0
 11
23.0
 21
-14.0
 72
     1
 10
23.0
 20
-14.0
 11
21.0
 21
-14.0
 97
        0
 75
     0
 76
     1
 98
        0
  0
HATCH
  5
400
330
5EE
100
AcDbEntity
  8
layer 1
100
AcDbHatch
 10
0.0
 20
0.0
 30
0.0
210
0.0
220
0.0
230
1.0
  2
SOLID
 70
     1
 71
     0
 91
        1
 92
        0
 93
        4
 72
     1
 10
27.0
 20
-14.0
 11
25.0
 21
-10.0
 72
     1
 10
25.0
 20
-10.0
 11
30.0
 21
-14.0
 72
     1
 10
30.0
 20
-14.0
 11
29.0
 21
-14.0
 72
     1
 10
29.0
 20
-14.0
 11
27.0
 21
-14.0
 97
        0
 75
     0
 76
     1
 98
        0
  0
LINE
  5
401
330
5EE
100
AcDbEntity
  8
layer 4
100
AcDbLine
 10
28.0
 20
-18.0
 30
0.0
 11
30.0
 21
-20.0
 31
0.0
  0
LINE
  5
402
330
5EE
100
AcDbEntity
  8
layer 5
100
AcDbLine
 10
22.0
 20
-18.0
 30
0.0
 11
25.0
 21
-15.0
 31
0.0
  0
HATCH
  5
403
330
5EE
100
AcDbEntity
  8
layer 5
100
AcDbHatch
 10
0.0
 20
0.0
 30
0.0
210
0.0
220
0.0
230
1.0
  2
SOLID
 70
     1
 71
     0
 91
        2
 92
        0
 93
        5
 72
     1
 10
22.0
 20
-18.0
 11
24.0
 21
-18.0
 72
     1
 10
24.0
 20
-18.0
 11
26.0
 21
-18.0
 72
     1
 10
26.0
 20
-18.0
 11
28.0
 21
-18.0
 72
     1
 10
28.0
 20
-18.0
 11
25.0
 21
-15.0
 72
     1
 10
25.0
 20
-15.0
 11
22.0
 21
-18.0
 97
        0
 92
        0
 93
        2
 72
     1
 10
30.42053440751121
 20
-12.15525216696708
 11
30.42053440751121
 21
-12.15525216696708
 72
     1
 10
30.42053440751121
 20
-12.15525216696708
 11
30.42053440751121
 21
-12.15525216696708
 97
        0
 75
     0
 76
     1
 98
        0
  0
LINE
  5
404
330
5EE
100
AcDbEntity
  8
layer 4
100
AcDbLine
 10
20.0
 20
-20.0
 30
0.0
 11
20.0
 21
-12.0
 31
0.0
  0
LINE
  5
405
330
5EE
100
AcDbEntity
  8
layer 4
100
AcDbLine
 10
20.0
 20
-10.0
 30
0.0
 11
22.0
 21
-10.0
 31
0.0
  0
LINE
  5
406
330
5EE
100
AcDbEntity
  8
layer 4
100
AcDbLine
 10
30.0
 20
-10.0
 30
0.0
 11
30.0
 21
-12.0
 31
0.0
  0
LINE
  5
407
330
5EE
100
AcDbEntity
  8
layer 4
100
AcDbLine
 10
30.0
 20
-20.0
 30
0.0
 11
26.0
 21
-20.0
 31
0.0
  0
LINE
  5
408
330
5EE
100
AcDbEntity
  8
layer 4
100
AcDbLine
 10
20.0
 20
-20.0
 30
0.0
 11
22.0
 21
-18.0
 31
0.0
  0
LINE
  5
409
330
5EE
100
AcDbEntity
  8
layer 5
100
AcDbLine
 10
25.0
 20
-15.0
 30
0.0
 11
28.0
 21
-18.0
 31
0.0
  0
LINE
  5
40A
330
5EE
100
AcDbEntity
  8
layer 4
100
AcDbLine
 10
30.0
 20
-20.0
 30
0.0
 11
29.0
 21
-18.0
 31
0.0
  0
LINE
  5
40B
330
5EE
100
AcDbEntity
  8
layer 4
100
AcDbLine
 10
25.0
 20
-10.0
 30
0.0
 11
23.0
 21
-14.0
 31
0.0
  0
LINE
  5
40C
330
5EE
100
AcDbEntity
  8
layer 4
100
AcDbLine
 10
20.0
 20
-14.0
 30
0.0
 11
25.0
 21
-10.0
 31
0.0
  0
LINE
  5
40D
330
5EE
100
AcDbEntity
  8
layer 4
100
AcDbLine
 10
25.0
 20
-10.0
 30
0.0
 11
30.0
 21
-14.0
 31
0.0
  0
LINE
  5
40E
330
5EE
100
AcDbEntity
  8
layer 4
100
AcDbLine
 10
30.0
 20
-14.0
 30
0.0
 11
29.0
 21
-14.0
 31
0.0
  0
LINE
  5
40F
330
5EE
100
AcDbEntity
  8
layer 4
100
AcDbLine
 10
23.0
 20
-14.0
 30
0.0
 11
21.0
 21
-14.0
 31
0.0
  0
LINE
  5
410
330
5EE
100
AcDbEntity
  8
layer 5
100
AcDbLine
 10
34.0
 20
-18.0
 30
0.0
 11
36.0
 21
-18.0
 31
0.0
  0
LINE
  5
411
330
5EE
100
AcDbEntity
  8
layer 4
100
AcDbLine
 10
34.0
 20
-18.0
 30
0.0
 11
34.0
 21
-20.0
 31
0.0
  0
LINE
  5
412
330
5EE
100
AcDbEntity
  8
layer 4
100
AcDbLine
 10
36.0
 20
-18.0
 30
0.0
 11
36.0
 21
-20.0
 31
0.0
  0
LINE
  5
413
330
5EE
100
AcDbEntity
  8
layer 4
100
AcDbLine
 10
35.0
 20
-13.0
 30
0.0
 11
34.0
 21
-15.0
 31
0.0
  0
LINE
  5
414
330
5EE
100
AcDbEntity
  8
layer 4
100
AcDbLine
 10
34.0
 20
-15.0
 30
0.0
 11
35.0
 21
-14.0
 31
0.0
  0
LINE
  5
415
330
5EE
100
AcDbEntity
  8
layer 4
100
AcDbLine
 10
35.0
 20
-14.0
 30
0.0
 11
36.0
 21
-15.0
 31
0.0
  0
LINE
  5
416
330
5EE
100
AcDbEntity
  8
layer 4
100
AcDbLine
 10
36.0
 20
-15.0
 30
0.0
 11
35.0
 21
-13.0
 31
0.0
  0
LINE
  5
417
330
5EE
100
AcDbEntity
  8
layer 4
100
AcDbLine
 10
39.0
 20
-14.0
 30
0.0
 11
39.0
 21
-14.0
 31
0.0
  0
HATCH
  5
418
330
5EE
100
AcDbEntity
  8
layer 4
100
AcDbHatch
 10
0.0
 20
0.0
 30
0.0
210
0.0
220
0.0
230
1.0
  2
SOLID
 70
     1
 71
     0
 91
        1
 92
        0
 93
        4
 72
     1
 10
35.0
 20
-13.0
 11
34.0
 21
-15.0
 72
     1
 10
34.0
 20
-15.0
 11
35.0
 21
-14.0
 72
     1
 10
35.0
 20
-14.0
 11
36.0
 21
-15.0
 72
     1
 10
36.0
 20
-15.0
 11
35.0
 21
-13.0
 97
        0
 75
     0
 76
     1
 98
        0
  0
LINE
  5
419
330
5EE
100
AcDbEntity
  8
layer 4
100
AcDbLine
 10
32.0
 20
-10.0
 30
0.0
 11
38.0
 21
-10.0
 31
0.0
  0
LINE
  5
41A
330
5EE
100
AcDbEntity
  8
layer 5
100
AcDbLine
 10
36.0
 20
-18.0
 30
0.0
 11
38.0
 21
-18.0
 31
0.0
  0
LINE
  5
41B
330
5EE
100
AcDbEntity
  8
layer 5
100
AcDbLine
 10
32.0
 20
-18.0
 30
0.0
 11
34.0
 21
-18.0
 31
0.0
  0
LINE
  5
41C
330
5EE
100
AcDbEntity
  8
layer 4
100
AcDbLine
 10
34.0
 20
-20.0
 30
0.0
 11
30.0
 21
-20.0
 31
0.0
  0
LINE
  5
41D
330
5EE
100
AcDbEntity
  8
layer 4
100
AcDbLine
 10
36.0
 20
-20.0
 30
0.0
 11
34.0
 21
-20.0
 31
0.0
  0
HATCH
  5
41E
330
5EE
100
AcDbEntity
  8
0
100
AcDbHatch
 10
0.0
 20
0.0
 30
0.0
210
0.0
220
0.0
230
1.0
  2
SOLID
 70
     1
 71
     0
 91
        1
 92
        0
 93
        4
 72
     1
 10
34.0
 20
-18.0
 11
34.0
 21
-20.0
 72
     1
 10
34.0
 20
-20.0
 11
36.0
 21
-20.0
 72
     1
 10
36.0
 20
-20.0
 11
36.0
 21
-18.0
 72
     1
 10
36.0
 20
-18.0
 11
34.0
 21
-18.0
 97
        0
 75
     0
 76
     1
 98
        0
  0
LINE
  5
41F
330
5EE
100
AcDbEntity
  8
layer 4
100
AcDbLine
 10
37.0
 20
-14.0
 30
0.0
 11
35.0
 21
-10.0
 31
0.0
  0
LINE
  5
420
330
5EE
100
AcDbEntity
  8
layer 4
100
AcDbLine
 10
39.0
 20
-18.0
 30
0.0
 11
39.0
 21
-18.0
 31
0.0
  0
LINE
  5
421
330
5EE
100
AcDbEntity
  8
layer 4
100
AcDbLine
 10
39.0
 20
-18.0
 30
0.0
 11
37.0
 21
-14.0
 31
0.0
  0
LINE
  5
422
330
5EE
100
AcDbEntity
  8
layer 4
100
AcDbLine
 10
39.0
 20
-14.0
 30
0.0
 11
39.0
 21
-18.0
 31
0.0
  0
LINE
  5
423
330
5EE
100
AcDbEntity
  8
layer 4
100
AcDbLine
 10
39.0
 20
-14.0
 30
0.0
 11
37.0
 21
-14.0
 31
0.0
  0
LINE
  5
424
330
5EE
100
AcDbEntity
  8
layer 4
100
AcDbLine
 10
31.0
 20
-18.0
 30
0.0
 11
31.0
 21
-18.0
 31
0.0
  0
LINE
  5
425
330
5EE
100
AcDbEntity
  8
layer 4
100
AcDbLine
 10
33.0
 20
-14.0
 30
0.0
 11
31.0
 21
-18.0
 31
0.0
  0
LINE
  5
426
330
5EE
100
AcDbEntity
  8
layer 4
100
AcDbLine
 10
29.42053440751121
 20
-11.15525216696708
 30
0.0
 11
29.42053440751121
 21
-11.15525216696708
 31
0.0
  0
LINE
  5
427
330
5EE
100
AcDbEntity
  8
layer 4
100
AcDbLine
 10
31.0
 20
-18.0
 30
0.0
 11
30.0
 21
-20.0
 31
0.0
  0
HATCH
  5
428
330
5EE
100
AcDbEntity
  8
layer 2
100
AcDbHatch
 10
0.0
 20
0.0
 30
0.0
210
0.0
220
0.0
230
1.0
  2
SOLID
 70
     1
 71
     0
 91
        1
 92
        0
 93
        5
 72
     1
 10
39.0
 20
-18.0
 11
39.0
 21
-18.0
 72
     1
 10
39.0
 20
-18.0
 11
37.0
 21
-14.0
 72
     1
 10
37.0
 20
-14.0
 11
39.0
 21
-14.0
 72
     1
 10
39.0
 20
-14.0
 11
39.0
 21
-14.0
 72
     1
 10
39.0
 20
-14.0
 11
39.0
 21
-18.0
 97
        0
 75
     0
 76
     1
 98
        0
  0
LINE
  5
429
330
5EE
100
AcDbEntity
  8
layer 4
100
AcDbLine
 10
31.0
 20
-14.0
 30
0.0
 11
31.0
 21
-18.0
 31
0.0
  0
LINE
  5
42A
330
5EE
100
AcDbEntity
  8
layer 4
100
AcDbLine
 10
31.0
 20
-14.0
 30
0.0
 11
30.0
 21
-14.0
 31
0.0
  0
HATCH
  5
42B
330
5EE
100
AcDbEntity
  8
0
 62
    18
420
        0
100
AcDbHatch
 10
0.0
 20
0.0
 30
0.0
210
0.0
220
0.0
230
1.0
  2
SOLID
 70
     1
 71
     0
 91
        1
 92
        0
 93
        5
 72
     1
 10
31.0
 20
-14.0
 11
31.0
 21
-14.0
 72
     1
 10
31.0
 20
-14.0
 11
31.0
 21
-14.0
 72
     1
 10
31.0
 20
-14.0
 11
33.0
 21
-14.0
 72
     1
 10
33.0
 20
-14.0
 11
31.0
 21
-18.0
 72
     1
 10
31.0
 20
-18.0
 11
31.0
 21
-14.0
 97
        0
 75
     0
 76
     1
 98
        0
  0
LINE
  5
42C
330
5EE
100
AcDbEntity
  8
layer 4
100
AcDbLine
 10
30.0
 20
-12.0
 30
0.0
 11
30.0
 21
-10.0
 31
0.0
  0
LINE
  5
42D
330
5EE
100
AcDbEntity
  8
layer 4
100
AcDbLine
 10
40.0
 20
-12.0
 30
0.0
 11
40.0
 21
-20.0
 31
0.0
  0
LINE
  5
42E
330
5EE
100
AcDbEntity
  8
layer 4
100
AcDbLine
 10
38.0
 20
-10.0
 30
0.0
 11
40.0
 21
-10.0
 31
0.0
  0
LINE
  5
42F
330
5EE
100
AcDbEntity
  8
layer 4
100
AcDbLine
 10
32.0
 20
-10.0
 30
0.0
 11
32.0
 21
-10.0
 31
0.0
  0
HATCH
  5
430
330
5EE
100
AcDbEntity
  8
layer 1
100
AcDbHatch
 10
0.0
 20
0.0
 30
0.0
210
0.0
220
0.0
230
1.0
  2
SOLID
 70
     1
 71
     0
 91
        1
 92
        0
 93
        4
 72
     1
 10
31.0
 20
-14.0
 11
30.0
 21
-14.0
 72
     1
 10
30.0
 20
-14.0
 11
35.0
 21
-10.0
 72
     1
 10
35.0
 20
-10.0
 11
33.0
 21
-14.0
 72
     1
 10
33.0
 20
-14.0
 11
31.0
 21
-14.0
 97
        0
 75
     0
 76
     1
 98
        0
  0
HATCH
  5
431
330
5EE
100
AcDbEntity
  8
layer 1
100
AcDbHatch
 10
0.0
 20
0.0
 30
0.0
210
0.0
220
0.0
230
1.0
  2
SOLID
 70
     1
 71
     0
 91
        1
 92
        0
 93
        4
 72
     1
 10
37.0
 20
-14.0
 11
35.0
 21
-10.0
 72
     1
 10
35.0
 20
-10.0
 11
40.0
 21
-14.0
 72
     1
 10
40.0
 20
-14.0
 11
39.0
 21
-14.0
 72
     1
 10
39.0
 20
-14.0
 11
37.0
 21
-14.0
 97
        0
 75
     0
 76
     1
 98
        0
  0
LINE
  5
432
330
5EE
100
AcDbEntity
  8
layer 4
100
AcDbLine
 10
38.0
 20
-18.0
 30
0.0
 11
40.0
 21
-20.0
 31
0.0
  0
LINE
  5
433
330
5EE
100
AcDbEntity
  8
layer 5
100
AcDbLine
 10
32.0
 20
-28.0
 30
0.0
 11
35.0
 21
-25.0
 31
0.0
  0
HATCH
  5
434
330
5EE
100
AcDbEntity
  8
layer 5
100
AcDbHatch
 10
0.0
 20
0.0
 30
0.0
210
0.0
220
0.0
230
1.0
  2
SOLID
 70
     1
 71
     0
 91
        2
 92
        0
 93
        5
 72
     1
 10
32.0
 20
-28.0
 11
34.0
 21
-28.0
 72
     1
 10
34.0
 20
-28.0
 11
36.0
 21
-28.0
 72
     1
 10
36.0
 20
-28.0
 11
38.0
 21
-28.0
 72
     1
 10
38.0
 20
-28.0
 11
35.0
 21
-25.0
 72
     1
 10
35.0
 20
-25.0
 11
32.0
 21
-28.0
 97
        0
 92
        0
 93
        2
 72
     1
 10
40.42053440751121
 20
-22.15525216696708
 11
40.42053440751121
 21
-22.15525216696708
 72
     1
 10
40.42053440751121
 20
-22.15525216696708
 11
40.42053440751121
 21
-22.15525216696708
 97
        0
 75
     0
 76
     1
 98
        0
  0
LINE
  5
435
330
5EE
100
AcDbEntity
  8
layer 4
100
AcDbLine
 10
30.0
 20
-30.0
 30
0.0
 11
30.0
 21
-22.0
 31
0.0
  0
LINE
  5
436
330
5EE
100
AcDbEntity
  8
layer 4
100
AcDbLine
 10
30.0
 20
-20.0
 30
0.0
 11
32.0
 21
-20.0
 31
0.0
  0
LINE
  5
437
330
5EE
100
AcDbEntity
  8
layer 4
100
AcDbLine
 10
40.0
 20
-20.0
 30
0.0
 11
40.0
 21
-22.0
 31
0.0
  0
LINE
  5
439
330
5EE
100
AcDbEntity
  8
layer 4
100
AcDbLine
 10
30.0
 20
-30.0
 30
0.0
 11
32.0
 21
-28.0
 31
0.0
  0
LINE
  5
43A
330
5EE
100
AcDbEntity
  8
layer 5
100
AcDbLine
 10
35.0
 20
-25.0
 30
0.0
 11
38.0
 21
-28.0
 31
0.0
  0
LINE
  5
43B
330
5EE
100
AcDbEntity
  8
layer 4
100
AcDbLine
 10
40.0
 20
-30.0
 30
0.0
 11
39.0
 21
-28.0
 31
0.0
  0
LINE
  5
43C
330
5EE
100
AcDbEntity
  8
layer 4
100
AcDbLine
 10
35.0
 20
-20.0
 30
0.0
 11
33.0
 21
-24.0
 31
0.0
  0
LINE
  5
43D
330
5EE
100
AcDbEntity
  8
layer 4
100
AcDbLine
 10
30.0
 20
-24.0
 30
0.0
 11
35.0
 21
-20.0
 31
0.0
  0
LINE
  5
43E
330
5EE
100
AcDbEntity
  8
layer 4
100
AcDbLine
 10
35.0
 20
-20.0
 30
0.0
 11
40.0
 21
-24.0
 31
0.0
  0
LINE
  5
43F
330
5EE
100
AcDbEntity
  8
layer 4
100
AcDbLine
 10
40.0
 20
-24.0
 30
0.0
 11
39.0
 21
-24.0
 31
0.0
  0
LINE
  5
440
330
5EE
100
AcDbEntity
  8
layer 4
100
AcDbLine
 10
33.0
 20
-24.0
 30
0.0
 11
31.0
 21
-24.0
 31
0.0
  0
LINE
  5
441
330
5EE
100
AcDbEntity
  8
layer 4
100
AcDbLine
 10
39.42053440751121
 20
-21.15525216696708
 30
0.0
 11
39.42053440751121
 21
-21.15525216696708
 31
0.0
  0
LINE
  5
442
330
5EE
100
AcDbEntity
  8
layer 4
100
AcDbLine
 10
40.0
 20
-22.0
 30
0.0
 11
40.0
 21
-20.0
 31
0.0
  0
LINE
  5
443
330
5EE
100
AcDbEntity
  8
layer 4
100
AcDbLine
 10
40.0
 20
-30.0
 30
0.0
 11
40.0
 21
-22.0
 31
0.0
  0
LINE
  5
444
330
5EE
100
AcDbEntity
  8
layer 4
100
AcDbLine
 10
0.0
 20
-30.0
 30
0.0
 11
0.0
 21
-22.0
 31
0.0
  0
LINE
  5
445
330
5EE
100
AcDbEntity
  8
layer 4
100
AcDbLine
 10
0.0
 20
-20.0
 30
0.0
 11
2.0
 21
-20.0
 31
0.0
  0
LINE
  5
446
330
5EE
100
AcDbEntity
  8
layer 4
100
AcDbLine
 10
10.0
 20
-20.0
 30
0.0
 11
10.0
 21
-22.0
 31
0.0
  0
LINE
  5
448
330
5EE
100
AcDbEntity
  8
layer 4
100
AcDbLine
 10
0.0
 20
-30.0
 30
0.0
 11
2.0
 21
-28.0
 31
0.0
  0
LINE
  5
449
330
5EE
100
AcDbEntity
  8
layer 5
100
AcDbLine
 10
5.0
 20
-25.0
 30
0.0
 11
8.0
 21
-28.0
 31
0.0
  0
LINE
  5
44A
330
5EE
100
AcDbEntity
  8
layer 4
100
AcDbLine
 10
10.0
 20
-30.0
 30
0.0
 11
9.0
 21
-28.0
 31
0.0
  0
LINE
  5
44B
330
5EE
100
AcDbEntity
  8
layer 4
100
AcDbLine
 10
5.0
 20
-20.0
 30
0.0
 11
3.0
 21
-24.0
 31
0.0
  0
LINE
  5
44C
330
5EE
100
AcDbEntity
  8
layer 4
100
AcDbLine
 10
0.0
 20
-24.0
 30
0.0
 11
5.0
 21
-20.0
 31
0.0
  0
LINE
  5
44D
330
5EE
100
AcDbEntity
  8
layer 4
100
AcDbLine
 10
1.420534407511212
 20
-17.15525216696708
 30
0.0
 11
1.420534407511212
 21
-17.15525216696708
 31
0.0
  0
LINE
  5
44E
330
5EE
100
AcDbEntity
  8
layer 4
100
AcDbLine
 10
5.0
 20
-20.0
 30
0.0
 11
10.0
 21
-24.0
 31
0.0
  0
LINE
  5
44F
330
5EE
100
AcDbEntity
  8
layer 4
100
AcDbLine
 10
10.0
 20
-24.0
 30
0.0
 11
9.0
 21
-24.0
 31
0.0
  0
LINE
  5
450
330
5EE
100
AcDbEntity
  8
layer 4
100
AcDbLine
 10
3.0
 20
-24.0
 30
0.0
 11
1.0
 21
-24.0
 31
0.0
  0
LINE
  5
451
330
5EE
100
AcDbEntity
  8
layer 5
100
AcDbLine
 10
4.0
 20
-28.0
 30
0.0
 11
6.0
 21
-28.0
 31
0.0
  0
LINE
  5
452
330
5EE
100
AcDbEntity
  8
layer 4
100
AcDbLine
 10
4.0
 20
-28.0
 30
0.0
 11
4.0
 21
-30.0
 31
0.0
  0
LINE
  5
453
330
5EE
100
AcDbEntity
  8
layer 4
100
AcDbLine
 10
6.0
 20
-28.0
 30
0.0
 11
6.0
 21
-30.0
 31
0.0
  0
LINE
  5
454
330
5EE
100
AcDbEntity
  8
layer 4
100
AcDbLine
 10
5.0
 20
-23.0
 30
0.0
 11
4.0
 21
-25.0
 31
0.0
  0
LINE
  5
455
330
5EE
100
AcDbEntity
  8
layer 4
100
AcDbLine
 10
4.0
 20
-25.0
 30
0.0
 11
5.0
 21
-24.0
 31
0.0
  0
LINE
  5
456
330
5EE
100
AcDbEntity
  8
layer 4
100
AcDbLine
 10
5.0
 20
-24.0
 30
0.0
 11
6.0
 21
-25.0
 31
0.0
  0
LINE
  5
457
330
5EE
100
AcDbEntity
  8
layer 4
100
AcDbLine
 10
6.0
 20
-25.0
 30
0.0
 11
5.0
 21
-23.0
 31
0.0
  0
LINE
  5
458
330
5EE
100
AcDbEntity
  8
layer 5
100
AcDbLine
 10
10.42053440751121
 20
-22.15525216696708
 30
0.0
 11
10.42053440751121
 21
-22.15525216696708
 31
0.0
  0
LINE
  5
459
330
5EE
100
AcDbEntity
  8
layer 4
100
AcDbLine
 10
9.0
 20
-24.0
 30
0.0
 11
9.0
 21
-24.0
 31
0.0
  0
HATCH
  5
45A
330
5EE
100
AcDbEntity
  8
layer 4
100
AcDbHatch
 10
0.0
 20
0.0
 30
0.0
210
0.0
220
0.0
230
1.0
  2
SOLID
 70
     1
 71
     0
 91
        1
 92
        0
 93
        4
 72
     1
 10
5.0
 20
-23.0
 11
4.0
 21
-25.0
 72
     1
 10
4.0
 20
-25.0
 11
5.0
 21
-24.0
 72
     1
 10
5.0
 20
-24.0
 11
6.0
 21
-25.0
 72
     1
 10
6.0
 20
-25.0
 11
5.0
 21
-23.0
 97
        0
 75
     0
 76
     1
 98
        0
  0
LINE
  5
45B
330
5EE
100
AcDbEntity
  8
layer 4
100
AcDbLine
 10
2.0
 20
-20.0
 30
0.0
 11
8.0
 21
-20.0
 31
0.0
  0
LINE
  5
45C
330
5EE
100
AcDbEntity
  8
layer 5
100
AcDbLine
 10
6.0
 20
-28.0
 30
0.0
 11
8.0
 21
-28.0
 31
0.0
  0
LINE
  5
45D
330
5EE
100
AcDbEntity
  8
layer 5
100
AcDbLine
 10
2.0
 20
-28.0
 30
0.0
 11
4.0
 21
-28.0
 31
0.0
  0
HATCH
  5
460
330
5EE
100
AcDbEntity
  8
0
100
AcDbHatch
 10
0.0
 20
0.0
 30
0.0
210
0.0
220
0.0
230
1.0
  2
SOLID
 70
     1
 71
     0
 91
        1
 92
        0
 93
        4
 72
     1
 10
4.0
 20
-28.0
 11
4.0
 21
-30.0
 72
     1
 10
4.0
 20
-30.0
 11
6.0
 21
-30.0
 72
     1
 10
6.0
 20
-30.0
 11
6.0
 21
-28.0
 72
     1
 10
6.0
 20
-28.0
 11
4.0
 21
-28.0
 97
        0
 75
     0
 76
     1
 98
        0
  0
LINE
  5
461
330
5EE
100
AcDbEntity
  8
layer 4
100
AcDbLine
 10
7.0
 20
-24.0
 30
0.0
 11
5.0
 21
-20.0
 31
0.0
  0
LINE
  5
462
330
5EE
100
AcDbEntity
  8
layer 4
100
AcDbLine
 10
9.0
 20
-28.0
 30
0.0
 11
9.0
 21
-28.0
 31
0.0
  0
LINE
  5
463
330
5EE
100
AcDbEntity
  8
layer 4
100
AcDbLine
 10
9.0
 20
-28.0
 30
0.0
 11
7.0
 21
-24.0
 31
0.0
  0
LINE
  5
464
330
5EE
100
AcDbEntity
  8
layer 4
100
AcDbLine
 10
9.0
 20
-24.0
 30
0.0
 11
9.0
 21
-28.0
 31
0.0
  0
LINE
  5
465
330
5EE
100
AcDbEntity
  8
layer 4
100
AcDbLine
 10
9.0
 20
-24.0
 30
0.0
 11
7.0
 21
-24.0
 31
0.0
  0
LINE
  5
466
330
5EE
100
AcDbEntity
  8
layer 5
100
AcDbLine
 10
10.42053440751121
 20
-22.15525216696708
 30
0.0
 11
10.42053440751121
 21
-22.15525216696708
 31
0.0
  0
LINE
  5
467
330
5EE
100
AcDbEntity
  8
layer 4
100
AcDbLine
 10
1.0
 20
-28.0
 30
0.0
 11
1.0
 21
-28.0
 31
0.0
  0
LINE
  5
468
330
5EE
100
AcDbEntity
  8
layer 4
100
AcDbLine
 10
3.0
 20
-24.0
 30
0.0
 11
1.0
 21
-28.0
 31
0.0
  0
LINE
  5
469
330
5EE
100
AcDbEntity
  8
layer 4
100
AcDbLine
 10
-0.5794655924887877
 20
-21.15525216696708
 30
0.0
 11
-0.5794655924887877
 21
-21.15525216696708
 31
0.0
  0
LINE
  5
46A
330
5EE
100
AcDbEntity
  8
layer 4
100
AcDbLine
 10
1.0
 20
-28.0
 30
0.0
 11
0.0
 21
-30.0
 31
0.0
  0
HATCH
  5
46B
330
5EE
100
AcDbEntity
  8
layer 2
100
AcDbHatch
 10
0.0
 20
0.0
 30
0.0
210
0.0
220
0.0
230
1.0
  2
SOLID
 70
     1
 71
     0
 91
        1
 92
        0
 93
        5
 72
     1
 10
9.0
 20
-28.0
 11
9.0
 21
-28.0
 72
     1
 10
9.0
 20
-28.0
 11
7.0
 21
-24.0
 72
     1
 10
7.0
 20
-24.0
 11
9.0
 21
-24.0
 72
     1
 10
9.0
 20
-24.0
 11
9.0
 21
-24.0
 72
     1
 10
9.0
 20
-24.0
 11
9.0
 21
-28.0
 97
        0
 75
     0
 76
     1
 98
        0
  0
LINE
  5
46C
330
5EE
100
AcDbEntity
  8
layer 4
100
AcDbLine
 10
1.0
 20
-24.0
 30
0.0
 11
1.0
 21
-28.0
 31
0.0
  0
LINE
  5
46D
330
5EE
100
AcDbEntity
  8
layer 4
100
AcDbLine
 10
1.0
 20
-24.0
 30
0.0
 11
0.0
 21
-24.0
 31
0.0
  0
HATCH
  5
46E
330
5EE
100
AcDbEntity
  8
0
 62
    18
420
        0
100
AcDbHatch
 10
0.0
 20
0.0
 30
0.0
210
0.0
220
0.0
230
1.0
  2
SOLID
 70
     1
 71
     0
 91
        1
 92
        0
 93
        5
 72
     1
 10
1.0
 20
-24.0
 11
1.0
 21
-24.0
 72
     1
 10
1.0
 20
-24.0
 11
1.0
 21
-24.0
 72
     1
 10
1.0
 20
-24.0
 11
3.0
 21
-24.0
 72
     1
 10
3.0
 20
-24.0
 11
1.0
 21
-28.0
 72
     1
 10
1.0
 20
-28.0
 11
1.0
 21
-24.0
 97
        0
 75
     0
 76
     1
 98
        0
  0
LINE
  5
46F
330
5EE
100
AcDbEntity
  8
layer 4
100
AcDbLine
 10
0.0
 20
-22.0
 30
0.0
 11
0.0
 21
-20.0
 31
0.0
  0
LINE
  5
470
330
5EE
100
AcDbEntity
  8
layer 4
100
AcDbLine
 10
10.0
 20
-22.0
 30
0.0
 11
10.0
 21
-30.0
 31
0.0
  0
LINE
  5
471
330
5EE
100
AcDbEntity
  8
layer 4
100
AcDbLine
 10
8.0
 20
-20.0
 30
0.0
 11
10.0
 21
-20.0
 31
0.0
  0
LINE
  5
472
330
5EE
100
AcDbEntity
  8
layer 4
100
AcDbLine
 10
2.0
 20
-20.0
 30
0.0
 11
2.0
 21
-20.0
 31
0.0
  0
HATCH
  5
473
330
5EE
100
AcDbEntity
  8
layer 1
100
AcDbHatch
 10
0.0
 20
0.0
 30
0.0
210
0.0
220
0.0
230
1.0
  2
SOLID
 70
     1
 71
     0
 91
        1
 92
        0
 93
        4
 72
     1
 10
1.0
 20
-24.0
 11
0.0
 21
-24.0
 72
     1
 10
0.0
 20
-24.0
 11
5.0
 21
-20.0
 72
     1
 10
5.0
 20
-20.0
 11
3.0
 21
-24.0
 72
     1
 10
3.0
 20
-24.0
 11
1.0
 21
-24.0
 97
        0
 75
     0
 76
     1
 98
        0
  0
HATCH
  5
474
330
5EE
100
AcDbEntity
  8
layer 1
100
AcDbHatch
 10
0.0
 20
0.0
 30
0.0
210
0.0
220
0.0
230
1.0
  2
SOLID
 70
     1
 71
     0
 91
        1
 92
        0
 93
        4
 72
     1
 10
7.0
 20
-24.0
 11
5.0
 21
-20.0
 72
     1
 10
5.0
 20
-20.0
 11
10.0
 21
-24.0
 72
     1
 10
10.0
 20
-24.0
 11
9.0
 21
-24.0
 72
     1
 10
9.0
 20
-24.0
 11
7.0
 21
-24.0
 97
        0
 75
     0
 76
     1
 98
        0
  0
LINE
  5
475
330
5EE
100
AcDbEntity
  8
layer 4
100
AcDbLine
 10
8.0
 20
-28.0
 30
0.0
 11
10.0
 21
-30.0
 31
0.0
  0
LINE
  5
476
330
5EE
100
AcDbEntity
  8
layer 5
100
AcDbLine
 10
2.0
 20
-28.0
 30
0.0
 11
5.0
 21
-25.0
 31
0.0
  0
HATCH
  5
477
330
5EE
100
AcDbEntity
  8
layer 5
100
AcDbHatch
 10
0.0
 20
0.0
 30
0.0
210
0.0
220
0.0
230
1.0
  2
SOLID
 70
     1
 71
     0
 91
        2
 92
        0
 93
        5
 72
     1
 10
2.0
 20
-28.0
 11
4.0
 21
-28.0
 72
     1
 10
4.0
 20
-28.0
 11
6.0
 21
-28.0
 72
     1
 10
6.0
 20
-28.0
 11
8.0
 21
-28.0
 72
     1
 10
8.0
 20
-28.0
 11
5.0
 21
-25.0
 72
     1
 10
5.0
 20
-25.0
 11
2.0
 21
-28.0
 97
        0
 92
        0
 93
        2
 72
     1
 10
10.42053440751121
 20
-22.15525216696708
 11
10.42053440751121
 21
-22.15525216696708
 72
     1
 10
10.42053440751121
 20
-22.15525216696708
 11
10.42053440751121
 21
-22.15525216696708
 97
        0
 75
     0
 76
     1
 98
        0
  0
LINE
  5
478
330
5EE
100
AcDbEntity
  8
layer 5
100
AcDbLine
 10
14.0
 20
-28.0
 30
0.0
 11
16.0
 21
-28.0
 31
0.0
  0
LINE
  5
479
330
5EE
100
AcDbEntity
  8
layer 4
100
AcDbLine
 10
14.0
 20
-28.0
 30
0.0
 11
14.0
 21
-30.0
 31
0.0
  0
LINE
  5
47A
330
5EE
100
AcDbEntity
  8
layer 4
100
AcDbLine
 10
16.0
 20
-28.0
 30
0.0
 11
16.0
 21
-30.0
 31
0.0
  0
LINE
  5
47B
330
5EE
100
AcDbEntity
  8
layer 4
100
AcDbLine
 10
15.0
 20
-23.0
 30
0.0
 11
14.0
 21
-25.0
 31
0.0
  0
LINE
  5
47C
330
5EE
100
AcDbEntity
  8
layer 4
100
AcDbLine
 10
14.0
 20
-25.0
 30
0.0
 11
15.0
 21
-24.0
 31
0.0
  0
LINE
  5
47D
330
5EE
100
AcDbEntity
  8
layer 4
100
AcDbLine
 10
15.0
 20
-24.0
 30
0.0
 11
16.0
 21
-25.0
 31
0.0
  0
LINE
  5
47E
330
5EE
100
AcDbEntity
  8
layer 4
100
AcDbLine
 10
16.0
 20
-25.0
 30
0.0
 11
15.0
 21
-23.0
 31
0.0
  0
LINE
  5
47F
330
5EE
100
AcDbEntity
  8
layer 5
100
AcDbLine
 10
20.42053440751121
 20
-22.15525216696708
 30
0.0
 11
20.42053440751121
 21
-22.15525216696708
 31
0.0
  0
LINE
  5
480
330
5EE
100
AcDbEntity
  8
layer 4
100
AcDbLine
 10
19.0
 20
-24.0
 30
0.0
 11
19.0
 21
-24.0
 31
0.0
  0
HATCH
  5
481
330
5EE
100
AcDbEntity
  8
layer 4
100
AcDbHatch
 10
0.0
 20
0.0
 30
0.0
210
0.0
220
0.0
230
1.0
  2
SOLID
 70
     1
 71
     0
 91
        1
 92
        0
 93
        4
 72
     1
 10
15.0
 20
-23.0
 11
14.0
 21
-25.0
 72
     1
 10
14.0
 20
-25.0
 11
15.0
 21
-24.0
 72
     1
 10
15.0
 20
-24.0
 11
16.0
 21
-25.0
 72
     1
 10
16.0
 20
-25.0
 11
15.0
 21
-23.0
 97
        0
 75
     0
 76
     1
 98
        0
  0
LINE
  5
482
330
5EE
100
AcDbEntity
  8
layer 4
100
AcDbLine
 10
12.0
 20
-20.0
 30
0.0
 11
18.0
 21
-20.0
 31
0.0
  0
LINE
  5
483
330
5EE
100
AcDbEntity
  8
layer 5
100
AcDbLine
 10
16.0
 20
-28.0
 30
0.0
 11
18.0
 21
-28.0
 31
0.0
  0
LINE
  5
484
330
5EE
100
AcDbEntity
  8
layer 5
100
AcDbLine
 10
12.0
 20
-28.0
 30
0.0
 11
14.0
 21
-28.0
 31
0.0
  0
HATCH
  5
487
330
5EE
100
AcDbEntity
  8
0
100
AcDbHatch
 10
0.0
 20
0.0
 30
0.0
210
0.0
220
0.0
230
1.0
  2
SOLID
 70
     1
 71
     0
 91
        1
 92
        0
 93
        4
 72
     1
 10
14.0
 20
-28.0
 11
14.0
 21
-30.0
 72
     1
 10
14.0
 20
-30.0
 11
16.0
 21
-30.0
 72
     1
 10
16.0
 20
-30.0
 11
16.0
 21
-28.0
 72
     1
 10
16.0
 20
-28.0
 11
14.0
 21
-28.0
 97
        0
 75
     0
 76
     1
 98
        0
  0
LINE
  5
488
330
5EE
100
AcDbEntity
  8
layer 4
100
AcDbLine
 10
17.0
 20
-24.0
 30
0.0
 11
15.0
 21
-20.0
 31
0.0
  0
LINE
  5
489
330
5EE
100
AcDbEntity
  8
layer 4
100
AcDbLine
 10
19.0
 20
-28.0
 30
0.0
 11
19.0
 21
-28.0
 31
0.0
  0
LINE
  5
48A
330
5EE
100
AcDbEntity
  8
layer 4
100
AcDbLine
 10
19.0
 20
-28.0
 30
0.0
 11
17.0
 21
-24.0
 31
0.0
  0
LINE
  5
48B
330
5EE
100
AcDbEntity
  8
layer 4
100
AcDbLine
 10
19.0
 20
-24.0
 30
0.0
 11
19.0
 21
-28.0
 31
0.0
  0
LINE
  5
48C
330
5EE
100
AcDbEntity
  8
layer 4
100
AcDbLine
 10
19.0
 20
-24.0
 30
0.0
 11
17.0
 21
-24.0
 31
0.0
  0
LINE
  5
48D
330
5EE
100
AcDbEntity
  8
layer 5
100
AcDbLine
 10
20.42053440751121
 20
-22.15525216696708
 30
0.0
 11
20.42053440751121
 21
-22.15525216696708
 31
0.0
  0
LINE
  5
48E
330
5EE
100
AcDbEntity
  8
layer 4
100
AcDbLine
 10
11.0
 20
-28.0
 30
0.0
 11
11.0
 21
-28.0
 31
0.0
  0
LINE
  5
48F
330
5EE
100
AcDbEntity
  8
layer 4
100
AcDbLine
 10
13.0
 20
-24.0
 30
0.0
 11
11.0
 21
-28.0
 31
0.0
  0
LINE
  5
490
330
5EE
100
AcDbEntity
  8
layer 4
100
AcDbLine
 10
9.420534407511212
 20
-21.15525216696708
 30
0.0
 11
9.420534407511212
 21
-21.15525216696708
 31
0.0
  0
LINE
  5
491
330
5EE
100
AcDbEntity
  8
layer 4
100
AcDbLine
 10
11.0
 20
-28.0
 30
0.0
 11
10.0
 21
-30.0
 31
0.0
  0
HATCH
  5
492
330
5EE
100
AcDbEntity
  8
layer 2
100
AcDbHatch
 10
0.0
 20
0.0
 30
0.0
210
0.0
220
0.0
230
1.0
  2
SOLID
 70
     1
 71
     0
 91
        1
 92
        0
 93
        5
 72
     1
 10
19.0
 20
-28.0
 11
19.0
 21
-28.0
 72
     1
 10
19.0
 20
-28.0
 11
17.0
 21
-24.0
 72
     1
 10
17.0
 20
-24.0
 11
19.0
 21
-24.0
 72
     1
 10
19.0
 20
-24.0
 11
19.0
 21
-24.0
 72
     1
 10
19.0
 20
-24.0
 11
19.0
 21
-28.0
 97
        0
 75
     0
 76
     1
 98
        0
  0
LINE
  5
493
330
5EE
100
AcDbEntity
  8
layer 4
100
AcDbLine
 10
11.0
 20
-24.0
 30
0.0
 11
11.0
 21
-28.0
 31
0.0
  0
LINE
  5
494
330
5EE
100
AcDbEntity
  8
layer 4
100
AcDbLine
 10
11.0
 20
-24.0
 30
0.0
 11
10.0
 21
-24.0
 31
0.0
  0
HATCH
  5
495
330
5EE
100
AcDbEntity
  8
0
 62
    18
420
        0
100
AcDbHatch
 10
0.0
 20
0.0
 30
0.0
210
0.0
220
0.0
230
1.0
  2
SOLID
 70
     1
 71
     0
 91
        1
 92
        0
 93
        5
 72
     1
 10
11.0
 20
-24.0
 11
11.0
 21
-24.0
 72
     1
 10
11.0
 20
-24.0
 11
11.0
 21
-24.0
 72
     1
 10
11.0
 20
-24.0
 11
13.0
 21
-24.0
 72
     1
 10
13.0
 20
-24.0
 11
11.0
 21
-28.0
 72
     1
 10
11.0
 20
-28.0
 11
11.0
 21
-24.0
 97
        0
 75
     0
 76
     1
 98
        0
  0
LINE
  5
496
330
5EE
100
AcDbEntity
  8
layer 4
100
AcDbLine
 10
10.0
 20
-22.0
 30
0.0
 11
10.0
 21
-20.0
 31
0.0
  0
LINE
  5
497
330
5EE
100
AcDbEntity
  8
layer 4
100
AcDbLine
 10
20.0
 20
-22.0
 30
0.0
 11
20.0
 21
-30.0
 31
0.0
  0
LINE
  5
498
330
5EE
100
AcDbEntity
  8
layer 4
100
AcDbLine
 10
18.0
 20
-20.0
 30
0.0
 11
20.0
 21
-20.0
 31
0.0
  0
LINE
  5
499
330
5EE
100
AcDbEntity
  8
layer 4
100
AcDbLine
 10
12.0
 20
-20.0
 30
0.0
 11
12.0
 21
-20.0
 31
0.0
  0
HATCH
  5
49A
330
5EE
100
AcDbEntity
  8
layer 1
100
AcDbHatch
 10
0.0
 20
0.0
 30
0.0
210
0.0
220
0.0
230
1.0
  2
SOLID
 70
     1
 71
     0
 91
        1
 92
        0
 93
        4
 72
     1
 10
11.0
 20
-24.0
 11
10.0
 21
-24.0
 72
     1
 10
10.0
 20
-24.0
 11
15.0
 21
-20.0
 72
     1
 10
15.0
 20
-20.0
 11
13.0
 21
-24.0
 72
     1
 10
13.0
 20
-24.0
 11
11.0
 21
-24.0
 97
        0
 75
     0
 76
     1
 98
        0
  0
HATCH
  5
49B
330
5EE
100
AcDbEntity
  8
layer 1
100
AcDbHatch
 10
0.0
 20
0.0
 30
0.0
210
0.0
220
0.0
230
1.0
  2
SOLID
 70
     1
 71
     0
 91
        1
 92
        0
 93
        4
 72
     1
 10
17.0
 20
-24.0
 11
15.0
 21
-20.0
 72
     1
 10
15.0
 20
-20.0
 11
20.0
 21
-24.0
 72
     1
 10
20.0
 20
-24.0
 11
19.0
 21
-24.0
 72
     1
 10
19.0
 20
-24.0
 11
17.0
 21
-24.0
 97
        0
 75
     0
 76
     1
 98
        0
  0
LINE
  5
49C
330
5EE
100
AcDbEntity
  8
layer 4
100
AcDbLine
 10
18.0
 20
-28.0
 30
0.0
 11
20.0
 21
-30.0
 31
0.0
  0
LINE
  5
49D
330
5EE
100
AcDbEntity
  8
layer 5
100
AcDbLine
 10
12.0
 20
-28.0
 30
0.0
 11
15.0
 21
-25.0
 31
0.0
  0
HATCH
  5
49E
330
5EE
100
AcDbEntity
  8
layer 5
100
AcDbHatch
 10
0.0
 20
0.0
 30
0.0
210
0.0
220
0.0
230
1.0
  2
SOLID
 70
     1
 71
     0
 91
        2
 92
        0
 93
        5
 72
     1
 10
12.0
 20
-28.0
 11
14.0
 21
-28.0
 72
     1
 10
14.0
 20
-28.0
 11
16.0
 21
-28.0
 72
     1
 10
16.0
 20
-28.0
 11
18.0
 21
-28.0
 72
     1
 10
18.0
 20
-28.0
 11
15.0
 21
-25.0
 72
     1
 10
15.0
 20
-25.0
 11
12.0
 21
-28.0
 97
        0
 92
        0
 93
        2
 72
     1
 10
20.42053440751121
 20
-22.15525216696708
 11
20.42053440751121
 21
-22.15525216696708
 72
     1
 10
20.42053440751121
 20
-22.15525216696708
 11
20.42053440751121
 21
-22.15525216696708
 97
        0
 75
     0
 76
     1
 98
        0
  0
LINE
  5
49F
330
5EE
100
AcDbEntity
  8
layer 4
100
AcDbLine
 10
10.0
 20
-30.0
 30
0.0
 11
10.0
 21
-22.0
 31
0.0
  0
LINE
  5
4A0
330
5EE
100
AcDbEntity
  8
layer 4
100
AcDbLine
 10
10.0
 20
-20.0
 30
0.0
 11
12.0
 21
-20.0
 31
0.0
  0
LINE
  5
4A1
330
5EE
100
AcDbEntity
  8
layer 4
100
AcDbLine
 10
20.0
 20
-20.0
 30
0.0
 11
20.0
 21
-22.0
 31
0.0
  0
LINE
  5
4A3
330
5EE
100
AcDbEntity
  8
layer 4
100
AcDbLine
 10
10.0
 20
-30.0
 30
0.0
 11
12.0
 21
-28.0
 31
0.0
  0
LINE
  5
4A4
330
5EE
100
AcDbEntity
  8
layer 5
100
AcDbLine
 10
15.0
 20
-25.0
 30
0.0
 11
18.0
 21
-28.0
 31
0.0
  0
LINE
  5
4A5
330
5EE
100
AcDbEntity
  8
layer 4
100
AcDbLine
 10
20.0
 20
-30.0
 30
0.0
 11
19.0
 21
-28.0
 31
0.0
  0
LINE
  5
4A6
330
5EE
100
AcDbEntity
  8
layer 4
100
AcDbLine
 10
15.0
 20
-20.0
 30
0.0
 11
13.0
 21
-24.0
 31
0.0
  0
LINE
  5
4A7
330
5EE
100
AcDbEntity
  8
layer 4
100
AcDbLine
 10
10.0
 20
-24.0
 30
0.0
 11
15.0
 21
-20.0
 31
0.0
  0
LINE
  5
4A8
330
5EE
100
AcDbEntity
  8
layer 4
100
AcDbLine
 10
15.0
 20
-20.0
 30
0.0
 11
20.0
 21
-24.0
 31
0.0
  0
LINE
  5
4A9
330
5EE
100
AcDbEntity
  8
layer 4
100
AcDbLine
 10
20.0
 20
-24.0
 30
0.0
 11
19.0
 21
-24.0
 31
0.0
  0
LINE
  5
4AA
330
5EE
100
AcDbEntity
  8
layer 4
100
AcDbLine
 10
13.0
 20
-24.0
 30
0.0
 11
11.0
 21
-24.0
 31
0.0
  0
LINE
  5
4AB
330
5EE
100
AcDbEntity
  8
layer 5
100
AcDbLine
 10
24.0
 20
-28.0
 30
0.0
 11
26.0
 21
-28.0
 31
0.0
  0
LINE
  5
4AC
330
5EE
100
AcDbEntity
  8
layer 4
100
AcDbLine
 10
24.0
 20
-28.0
 30
0.0
 11
24.0
 21
-30.0
 31
0.0
  0
LINE
  5
4AD
330
5EE
100
AcDbEntity
  8
layer 4
100
AcDbLine
 10
26.0
 20
-28.0
 30
0.0
 11
26.0
 21
-30.0
 31
0.0
  0
LINE
  5
4AE
330
5EE
100
AcDbEntity
  8
layer 4
100
AcDbLine
 10
25.0
 20
-23.0
 30
0.0
 11
24.0
 21
-25.0
 31
0.0
  0
LINE
  5
4AF
330
5EE
100
AcDbEntity
  8
layer 4
100
AcDbLine
 10
24.0
 20
-25.0
 30
0.0
 11
25.0
 21
-24.0
 31
0.0
  0
LINE
  5
4B0
330
5EE
100
AcDbEntity
  8
layer 4
100
AcDbLine
 10
25.0
 20
-24.0
 30
0.0
 11
26.0
 21
-25.0
 31
0.0
  0
LINE
  5
4B1
330
5EE
100
AcDbEntity
  8
layer 4
100
AcDbLine
 10
26.0
 20
-25.0
 30
0.0
 11
25.0
 21
-23.0
 31
0.0
  0
LINE
  5
4B2
330
5EE
100
AcDbEntity
  8
layer 5
100
AcDbLine
 10
30.42053440751121
 20
-22.15525216696708
 30
0.0
 11
30.42053440751121
 21
-22.15525216696708
 31
0.0
  0
LINE
  5
4B3
330
5EE
100
AcDbEntity
  8
layer 4
100
AcDbLine
 10
29.0
 20
-24.0
 30
0.0
 11
29.0
 21
-24.0
 31
0.0
  0
HATCH
  5
4B4
330
5EE
100
AcDbEntity
  8
layer 4
100
AcDbHatch
 10
0.0
 20
0.0
 30
0.0
210
0.0
220
0.0
230
1.0
  2
SOLID
 70
     1
 71
     0
 91
        1
 92
        0
 93
        4
 72
     1
 10
25.0
 20
-23.0
 11
24.0
 21
-25.0
 72
     1
 10
24.0
 20
-25.0
 11
25.0
 21
-24.0
 72
     1
 10
25.0
 20
-24.0
 11
26.0
 21
-25.0
 72
     1
 10
26.0
 20
-25.0
 11
25.0
 21
-23.0
 97
        0
 75
     0
 76
     1
 98
        0
  0
LINE
  5
4B5
330
5EE
100
AcDbEntity
  8
layer 4
100
AcDbLine
 10
22.0
 20
-20.0
 30
0.0
 11
28.0
 21
-20.0
 31
0.0
  0
LINE
  5
4B6
330
5EE
100
AcDbEntity
  8
layer 5
100
AcDbLine
 10
26.0
 20
-28.0
 30
0.0
 11
28.0
 21
-28.0
 31
0.0
  0
LINE
  5
4B7
330
5EE
100
AcDbEntity
  8
layer 5
100
AcDbLine
 10
22.0
 20
-28.0
 30
0.0
 11
24.0
 21
-28.0
 31
0.0
  0
HATCH
  5
4BA
330
5EE
100
AcDbEntity
  8
0
100
AcDbHatch
 10
0.0
 20
0.0
 30
0.0
210
0.0
220
0.0
230
1.0
  2
SOLID
 70
     1
 71
     0
 91
        1
 92
        0
 93
        4
 72
     1
 10
24.0
 20
-28.0
 11
24.0
 21
-30.0
 72
     1
 10
24.0
 20
-30.0
 11
26.0
 21
-30.0
 72
     1
 10
26.0
 20
-30.0
 11
26.0
 21
-28.0
 72
     1
 10
26.0
 20
-28.0
 11
24.0
 21
-28.0
 97
        0
 75
     0
 76
     1
 98
        0
  0
LINE
  5
4BB
330
5EE
100
AcDbEntity
  8
layer 4
100
AcDbLine
 10
27.0
 20
-24.0
 30
0.0
 11
25.0
 21
-20.0
 31
0.0
  0
LINE
  5
4BC
330
5EE
100
AcDbEntity
  8
layer 4
100
AcDbLine
 10
29.0
 20
-28.0
 30
0.0
 11
29.0
 21
-28.0
 31
0.0
  0
LINE
  5
4BD
330
5EE
100
AcDbEntity
  8
layer 4
100
AcDbLine
 10
29.0
 20
-28.0
 30
0.0
 11
27.0
 21
-24.0
 31
0.0
  0
LINE
  5
4BE
330
5EE
100
AcDbEntity
  8
layer 4
100
AcDbLine
 10
29.0
 20
-24.0
 30
0.0
 11
29.0
 21
-28.0
 31
0.0
  0
LINE
  5
4BF
330
5EE
100
AcDbEntity
  8
layer 4
100
AcDbLine
 10
29.0
 20
-24.0
 30
0.0
 11
27.0
 21
-24.0
 31
0.0
  0
LINE
  5
4C0
330
5EE
100
AcDbEntity
  8
layer 5
100
AcDbLine
 10
30.42053440751121
 20
-22.15525216696708
 30
0.0
 11
30.42053440751121
 21
-22.15525216696708
 31
0.0
  0
LINE
  5
4C1
330
5EE
100
AcDbEntity
  8
layer 4
100
AcDbLine
 10
21.0
 20
-28.0
 30
0.0
 11
21.0
 21
-28.0
 31
0.0
  0
LINE
  5
4C2
330
5EE
100
AcDbEntity
  8
layer 4
100
AcDbLine
 10
23.0
 20
-24.0
 30
0.0
 11
21.0
 21
-28.0
 31
0.0
  0
LINE
  5
4C3
330
5EE
100
AcDbEntity
  8
layer 4
100
AcDbLine
 10
19.42053440751121
 20
-21.15525216696708
 30
0.0
 11
19.42053440751121
 21
-21.15525216696708
 31
0.0
  0
LINE
  5
4C4
330
5EE
100
AcDbEntity
  8
layer 4
100
AcDbLine
 10
21.0
 20
-28.0
 30
0.0
 11
20.0
 21
-30.0
 31
0.0
  0
HATCH
  5
4C5
330
5EE
100
AcDbEntity
  8
layer 2
100
AcDbHatch
 10
0.0
 20
0.0
 30
0.0
210
0.0
220
0.0
230
1.0
  2
SOLID
 70
     1
 71
     0
 91
        1
 92
        0
 93
        5
 72
     1
 10
29.0
 20
-28.0
 11
29.0
 21
-28.0
 72
     1
 10
29.0
 20
-28.0
 11
27.0
 21
-24.0
 72
     1
 10
27.0
 20
-24.0
 11
29.0
 21
-24.0
 72
     1
 10
29.0
 20
-24.0
 11
29.0
 21
-24.0
 72
     1
 10
29.0
 20
-24.0
 11
29.0
 21
-28.0
 97
        0
 75
     0
 76
     1
 98
        0
  0
LINE
  5
4C6
330
5EE
100
AcDbEntity
  8
layer 4
100
AcDbLine
 10
21.0
 20
-24.0
 30
0.0
 11
21.0
 21
-28.0
 31
0.0
  0
LINE
  5
4C7
330
5EE
100
AcDbEntity
  8
layer 4
100
AcDbLine
 10
21.0
 20
-24.0
 30
0.0
 11
20.0
 21
-24.0
 31
0.0
  0
HATCH
  5
4C8
330
5EE
100
AcDbEntity
  8
0
 62
    18
420
        0
100
AcDbHatch
 10
0.0
 20
0.0
 30
0.0
210
0.0
220
0.0
230
1.0
  2
SOLID
 70
     1
 71
     0
 91
        1
 92
        0
 93
        5
 72
     1
 10
21.0
 20
-24.0
 11
21.0
 21
-24.0
 72
     1
 10
21.0
 20
-24.0
 11
21.0
 21
-24.0
 72
     1
 10
21.0
 20
-24.0
 11
23.0
 21
-24.0
 72
     1
 10
23.0
 20
-24.0
 11
21.0
 21
-28.0
 72
     1
 10
21.0
 20
-28.0
 11
21.0
 21
-24.0
 97
        0
 75
     0
 76
     1
 98
        0
  0
LINE
  5
4C9
330
5EE
100
AcDbEntity
  8
layer 4
100
AcDbLine
 10
20.0
 20
-22.0
 30
0.0
 11
20.0
 21
-20.0
 31
0.0
  0
LINE
  5
4CA
330
5EE
100
AcDbEntity
  8
layer 4
100
AcDbLine
 10
30.0
 20
-22.0
 30
0.0
 11
30.0
 21
-30.0
 31
0.0
  0
LINE
  5
4CB
330
5EE
100
AcDbEntity
  8
layer 4
100
AcDbLine
 10
28.0
 20
-20.0
 30
0.0
 11
30.0
 21
-20.0
 31
0.0
  0
LINE
  5
4CC
330
5EE
100
AcDbEntity
  8
layer 4
100
AcDbLine
 10
22.0
 20
-20.0
 30
0.0
 11
22.0
 21
-20.0
 31
0.0
  0
HATCH
  5
4CD
330
5EE
100
AcDbEntity
  8
layer 1
100
AcDbHatch
 10
0.0
 20
0.0
 30
0.0
210
0.0
220
0.0
230
1.0
  2
SOLID
 70
     1
 71
     0
 91
        1
 92
        0
 93
        4
 72
     1
 10
21.0
 20
-24.0
 11
20.0
 21
-24.0
 72
     1
 10
20.0
 20
-24.0
 11
25.0
 21
-20.0
 72
     1
 10
25.0
 20
-20.0
 11
23.0
 21
-24.0
 72
     1
 10
23.0
 20
-24.0
 11
21.0
 21
-24.0
 97
        0
 75
     0
 76
     1
 98
        0
  0
HATCH
  5
4CE
330
5EE
100
AcDbEntity
  8
layer 1
100
AcDbHatch
 10
0.0
 20
0.0
 30
0.0
210
0.0
220
0.0
230
1.0
  2
SOLID
 70
     1
 71
     0
 91
        1
 92
        0
 93
        4
 72
     1
 10
27.0
 20
-24.0
 11
25.0
 21
-20.0
 72
     1
 10
25.0
 20
-20.0
 11
30.0
 21
-24.0
 72
     1
 10
30.0
 20
-24.0
 11
29.0
 21
-24.0
 72
     1
 10
29.0
 20
-24.0
 11
27.0
 21
-24.0
 97
        0
 75
     0
 76
     1
 98
        0
  0
LINE
  5
4CF
330
5EE
100
AcDbEntity
  8
layer 4
100
AcDbLine
 10
28.0
 20
-28.0
 30
0.0
 11
30.0
 21
-30.0
 31
0.0
  0
LINE
  5
4D0
330
5EE
100
AcDbEntity
  8
layer 5
100
AcDbLine
 10
22.0
 20
-28.0
 30
0.0
 11
25.0
 21
-25.0
 31
0.0
  0
HATCH
  5
4D1
330
5EE
100
AcDbEntity
  8
layer 5
100
AcDbHatch
 10
0.0
 20
0.0
 30
0.0
210
0.0
220
0.0
230
1.0
  2
SOLID
 70
     1
 71
     0
 91
        2
 92
        0
 93
        5
 72
     1
 10
22.0
 20
-28.0
 11
24.0
 21
-28.0
 72
     1
 10
24.0
 20
-28.0
 11
26.0
 21
-28.0
 72
     1
 10
26.0
 20
-28.0
 11
28.0
 21
-28.0
 72
     1
 10
28.0
 20
-28.0
 11
25.0
 21
-25.0
 72
     1
 10
25.0
 20
-25.0
 11
22.0
 21
-28.0
 97
        0
 92
        0
 93
        2
 72
     1
 10
30.42053440751121
 20
-22.15525216696708
 11
30.42053440751121
 21
-22.15525216696708
 72
     1
 10
30.42053440751121
 20
-22.15525216696708
 11
30.42053440751121
 21
-22.15525216696708
 97
        0
 75
     0
 76
     1
 98
        0
  0
LINE
  5
4D2
330
5EE
100
AcDbEntity
  8
layer 4
100
AcDbLine
 10
20.0
 20
-30.0
 30
0.0
 11
20.0
 21
-22.0
 31
0.0
  0
LINE
  5
4D3
330
5EE
100
AcDbEntity
  8
layer 4
100
AcDbLine
 10
20.0
 20
-20.0
 30
0.0
 11
22.0
 21
-20.0
 31
0.0
  0
LINE
  5
4D4
330
5EE
100
AcDbEntity
  8
layer 4
100
AcDbLine
 10
30.0
 20
-20.0
 30
0.0
 11
30.0
 21
-22.0
 31
0.0
  0
LINE
  5
4D6
330
5EE
100
AcDbEntity
  8
layer 4
100
AcDbLine
 10
20.0
 20
-30.0
 30
0.0
 11
22.0
 21
-28.0
 31
0.0
  0
LINE
  5
4D7
330
5EE
100
AcDbEntity
  8
layer 5
100
AcDbLine
 10
25.0
 20
-25.0
 30
0.0
 11
28.0
 21
-28.0
 31
0.0
  0
LINE
  5
4D8
330
5EE
100
AcDbEntity
  8
layer 4
100
AcDbLine
 10
30.0
 20
-30.0
 30
0.0
 11
29.0
 21
-28.0
 31
0.0
  0
LINE
  5
4D9
330
5EE
100
AcDbEntity
  8
layer 4
100
AcDbLine
 10
25.0
 20
-20.0
 30
0.0
 11
23.0
 21
-24.0
 31
0.0
  0
LINE
  5
4DA
330
5EE
100
AcDbEntity
  8
layer 4
100
AcDbLine
 10
20.0
 20
-24.0
 30
0.0
 11
25.0
 21
-20.0
 31
0.0
  0
LINE
  5
4DB
330
5EE
100
AcDbEntity
  8
layer 4
100
AcDbLine
 10
25.0
 20
-20.0
 30
0.0
 11
30.0
 21
-24.0
 31
0.0
  0
LINE
  5
4DC
330
5EE
100
AcDbEntity
  8
layer 4
100
AcDbLine
 10
30.0
 20
-24.0
 30
0.0
 11
29.0
 21
-24.0
 31
0.0
  0
LINE
  5
4DD
330
5EE
100
AcDbEntity
  8
layer 4
100
AcDbLine
 10
23.0
 20
-24.0
 30
0.0
 11
21.0
 21
-24.0
 31
0.0
  0
LINE
  5
4DE
330
5EE
100
AcDbEntity
  8
layer 5
100
AcDbLine
 10
34.0
 20
-28.0
 30
0.0
 11
36.0
 21
-28.0
 31
0.0
  0
LINE
  5
4DF
330
5EE
100
AcDbEntity
  8
layer 4
100
AcDbLine
 10
34.0
 20
-28.0
 30
0.0
 11
34.0
 21
-30.0
 31
0.0
  0
LINE
  5
4E0
330
5EE
100
AcDbEntity
  8
layer 4
100
AcDbLine
 10
36.0
 20
-28.0
 30
0.0
 11
36.0
 21
-30.0
 31
0.0
  0
LINE
  5
4E1
330
5EE
100
AcDbEntity
  8
layer 4
100
AcDbLine
 10
35.0
 20
-23.0
 30
0.0
 11
34.0
 21
-25.0
 31
0.0
  0
LINE
  5
4E2
330
5EE
100
AcDbEntity
  8
layer 4
100
AcDbLine
 10
34.0
 20
-25.0
 30
0.0
 11
35.0
 21
-24.0
 31
0.0
  0
LINE
  5
4E3
330
5EE
100
AcDbEntity
  8
layer 4
100
AcDbLine
 10
35.0
 20
-24.0
 30
0.0
 11
36.0
 21
-25.0
 31
0.0
  0
LINE
  5
4E4
330
5EE
100
AcDbEntity
  8
layer 4
100
AcDbLine
 10
36.0
 20
-25.0
 30
0.0
 11
35.0
 21
-23.0
 31
0.0
  0
LINE
  5
4E5
330
5EE
100
AcDbEntity
  8
layer 4
100
AcDbLine
 10
39.0
 20
-24.0
 30
0.0
 11
39.0
 21
-24.0
 31
0.0
  0
HATCH
  5
4E6
330
5EE
100
AcDbEntity
  8
layer 4
100
AcDbHatch
 10
0.0
 20
0.0
 30
0.0
210
0.0
220
0.0
230
1.0
  2
SOLID
 70
     1
 71
     0
 91
        1
 92
        0
 93
        4
 72
     1
 10
35.0
 20
-23.0
 11
34.0
 21
-25.0
 72
     1
 10
34.0
 20
-25.0
 11
35.0
 21
-24.0
 72
     1
 10
35.0
 20
-24.0
 11
36.0
 21
-25.0
 72
     1
 10
36.0
 20
-25.0
 11
35.0
 21
-23.0
 97
        0
 75
     0
 76
     1
 98
        0
  0
LINE
  5
4E7
330
5EE
100
AcDbEntity
  8
layer 4
100
AcDbLine
 10
32.0
 20
-20.0
 30
0.0
 11
38.0
 21
-20.0
 31
0.0
  0
LINE
  5
4E8
330
5EE
100
AcDbEntity
  8
layer 5
100
AcDbLine
 10
36.0
 20
-28.0
 30
0.0
 11
38.0
 21
-28.0
 31
0.0
  0
LINE
  5
4E9
330
5EE
100
AcDbEntity
  8
layer 5
100
AcDbLine
 10
32.0
 20
-28.0
 30
0.0
 11
34.0
 21
-28.0
 31
0.0
  0
HATCH
  5
4EC
330
5EE
100
AcDbEntity
  8
0
100
AcDbHatch
 10
0.0
 20
0.0
 30
0.0
210
0.0
220
0.0
230
1.0
  2
SOLID
 70
     1
 71
     0
 91
        1
 92
        0
 93
        4
 72
     1
 10
34.0
 20
-28.0
 11
34.0
 21
-30.0
 72
     1
 10
34.0
 20
-30.0
 11
36.0
 21
-30.0
 72
     1
 10
36.0
 20
-30.0
 11
36.0
 21
-28.0
 72
     1
 10
36.0
 20
-28.0
 11
34.0
 21
-28.0
 97
        0
 75
     0
 76
     1
 98
        0
  0
LINE
  5
4ED
330
5EE
100
AcDbEntity
  8
layer 4
100
AcDbLine
 10
37.0
 20
-24.0
 30
0.0
 11
35.0
 21
-20.0
 31
0.0
  0
LINE
  5
4EE
330
5EE
100
AcDbEntity
  8
layer 4
100
AcDbLine
 10
39.0
 20
-28.0
 30
0.0
 11
39.0
 21
-28.0
 31
0.0
  0
LINE
  5
4EF
330
5EE
100
AcDbEntity
  8
layer 4
100
AcDbLine
 10
39.0
 20
-28.0
 30
0.0
 11
37.0
 21
-24.0
 31
0.0
  0
LINE
  5
4F0
330
5EE
100
AcDbEntity
  8
layer 4
100
AcDbLine
 10
39.0
 20
-24.0
 30
0.0
 11
39.0
 21
-28.0
 31
0.0
  0
LINE
  5
4F1
330
5EE
100
AcDbEntity
  8
layer 4
100
AcDbLine
 10
39.0
 20
-24.0
 30
0.0
 11
37.0
 21
-24.0
 31
0.0
  0
LINE
  5
4F2
330
5EE
100
AcDbEntity
  8
layer 4
100
AcDbLine
 10
31.0
 20
-28.0
 30
0.0
 11
31.0
 21
-28.0
 31
0.0
  0
LINE
  5
4F3
330
5EE
100
AcDbEntity
  8
layer 4
100
AcDbLine
 10
33.0
 20
-24.0
 30
0.0
 11
31.0
 21
-28.0
 31
0.0
  0
LINE
  5
4F4
330
5EE
100
AcDbEntity
  8
layer 4
100
AcDbLine
 10
29.42053440751121
 20
-21.15525216696708
 30
0.0
 11
29.42053440751121
 21
-21.15525216696708
 31
0.0
  0
LINE
  5
4F5
330
5EE
100
AcDbEntity
  8
layer 4
100
AcDbLine
 10
31.0
 20
-28.0
 30
0.0
 11
30.0
 21
-30.0
 31
0.0
  0
HATCH
  5
4F6
330
5EE
100
AcDbEntity
  8
layer 2
100
AcDbHatch
 10
0.0
 20
0.0
 30
0.0
210
0.0
220
0.0
230
1.0
  2
SOLID
 70
     1
 71
     0
 91
        1
 92
        0
 93
        5
 72
     1
 10
39.0
 20
-28.0
 11
39.0
 21
-28.0
 72
     1
 10
39.0
 20
-28.0
 11
37.0
 21
-24.0
 72
     1
 10
37.0
 20
-24.0
 11
39.0
 21
-24.0
 72
     1
 10
39.0
 20
-24.0
 11
39.0
 21
-24.0
 72
     1
 10
39.0
 20
-24.0
 11
39.0
 21
-28.0
 97
        0
 75
     0
 76
     1
 98
        0
  0
LINE
  5
4F7
330
5EE
100
AcDbEntity
  8
layer 4
100
AcDbLine
 10
31.0
 20
-24.0
 30
0.0
 11
31.0
 21
-28.0
 31
0.0
  0
LINE
  5
4F8
330
5EE
100
AcDbEntity
  8
layer 4
100
AcDbLine
 10
31.0
 20
-24.0
 30
0.0
 11
30.0
 21
-24.0
 31
0.0
  0
HATCH
  5
4F9
330
5EE
100
AcDbEntity
  8
0
 62
    18
420
        0
100
AcDbHatch
 10
0.0
 20
0.0
 30
0.0
210
0.0
220
0.0
230
1.0
  2
SOLID
 70
     1
 71
     0
 91
        1
 92
        0
 93
        5
 72
     1
 10
31.0
 20
-24.0
 11
31.0
 21
-24.0
 72
     1
 10
31.0
 20
-24.0
 11
31.0
 21
-24.0
 72
     1
 10
31.0
 20
-24.0
 11
33.0
 21
-24.0
 72
     1
 10
33.0
 20
-24.0
 11
31.0
 21
-28.0
 72
     1
 10
31.0
 20
-28.0
 11
31.0
 21
-24.0
 97
        0
 75
     0
 76
     1
 98
        0
  0
LINE
  5
4FA
330
5EE
100
AcDbEntity
  8
layer 4
100
AcDbLine
 10
30.0
 20
-22.0
 30
0.0
 11
30.0
 21
-20.0
 31
0.0
  0
LINE
  5
4FB
330
5EE
100
AcDbEntity
  8
layer 4
100
AcDbLine
 10
40.0
 20
-22.0
 30
0.0
 11
40.0
 21
-30.0
 31
0.0
  0
LINE
  5
4FC
330
5EE
100
AcDbEntity
  8
layer 4
100
AcDbLine
 10
38.0
 20
-20.0
 30
0.0
 11
40.0
 21
-20.0
 31
0.0
  0
LINE
  5
4FD
330
5EE
100
AcDbEntity
  8
layer 4
100
AcDbLine
 10
32.0
 20
-20.0
 30
0.0
 11
32.0
 21
-20.0
 31
0.0
  0
HATCH
  5
4FE
330
5EE
100
AcDbEntity
  8
layer 1
100
AcDbHatch
 10
0.0
 20
0.0
 30
0.0
210
0.0
220
0.0
230
1.0
  2
SOLID
 70
     1
 71
     0
 91
        1
 92
        0
 93
        4
 72
     1
 10
31.0
 20
-24.0
 11
30.0
 21
-24.0
 72
     1
 10
30.0
 20
-24.0
 11
35.0
 21
-20.0
 72
     1
 10
35.0
 20
-20.0
 11
33.0
 21
-24.0
 72
     1
 10
33.0
 20
-24.0
 11
31.0
 21
-24.0
 97
        0
 75
     0
 76
     1
 98
        0
  0
HATCH
  5
4FF
330
5EE
100
AcDbEntity
  8
layer 1
100
AcDbHatch
 10
0.0
 20
0.0
 30
0.0
210
0.0
220
0.0
230
1.0
  2
SOLID
 70
     1
 71
     0
 91
        1
 92
        0
 93
        4
 72
     1
 10
37.0
 20
-24.0
 11
35.0
 21
-20.0
 72
     1
 10
35.0
 20
-20.0
 11
40.0
 21
-24.0
 72
     1
 10
40.0
 20
-24.0
 11
39.0
 21
-24.0
 72
     1
 10
39.0
 20
-24.0
 11
37.0
 21
-24.0
 97
        0
 75
     0
 76
     1
 98
        0
  0
LINE
  5
500
330
5EE
100
AcDbEntity
  8
layer 4
100
AcDbLine
 10
38.0
 20
-28.0
 30
0.0
 11
40.0
 21
-30.0
 31
0.0
  0
LINE
  5
51B
330
5EE
100
AcDbEntity
  8
layer 4
100
AcDbLine
 10
1.420534407511212
 20
-27.15525216696708
 30
0.0
 11
1.420534407511212
 21
-27.15525216696708
 31
0.0
  0
LINE
  5
5CF
330
5EE
100
AcDbEntity
  8
layer 4
100
AcDbLine
 10
0.0
 20
-30.0
 30
0.0
 11
40.0
 21
-30.0
 31
0.0
  0
ENDSEC
  0
SECTION
  2
OBJECTS
  0
DICTIONARY
  5
5DC
330
0
100
AcDbDictionary
281
     1
  3
ACAD_DETAILVIEWSTYLE
350
682
  3
ACAD_GROUP
350
5DD
  3
ACAD_LAYOUT
350
5E9
  3
ACAD_MATERIAL
350
612
  3
ACAD_MLEADERSTYLE
350
681
  3
ACAD_MLINESTYLE
350
5E6
  3
ACAD_PLOTSETTINGS
350
5E8
  3
ACAD_PLOTSTYLENAME
350
5DE
  3
ACAD_SCALELIST
350
616
  3
ACAD_SECTIONVIEWSTYLE
350
683
  3
ACAD_TABLESTYLE
350
680
  3
ACAD_VISUALSTYLE
350
5F9
  3
AcDbVariableDictionary
350
67E
  3
QCAD_OBJECTS
350
63A
  0
SUN
  5
638
330
5F8
100
AcDbSun
 90
        1
290
     0
 63
     7
421
 16777215
 40
1.0
291
     1
 91
  2455826
 92
 54000000
292
     0
 70
     2
 71
   256
280
     1
  0
DICTIONARY
  5
682
102
{ACAD_REACTORS
330
5DC
102
}
330
5DC
100
AcDbDictionary
281
     1
  0
DICTIONARY
  5
5DD
102
{ACAD_REACTORS
330
5DC
102
}
330
5DC
100
AcDbDictionary
281
     1
  0
DICTIONARY
  5
5E9
102
{ACAD_REACTORS
330
5DC
102
}
330
5DC
100
AcDbDictionary
281
     1
  3
Layout1
350
5ED
  3
Layout2
350
5F5
  3
Model
350
5F1
  0
DICTIONARY
  5
612
102
{ACAD_REACTORS
330
5DC
102
}
330
5DC
100
AcDbDictionary
281
     1
  3
ByBlock
350
614
  3
ByLayer
350
613
  3
Global
350
615
  0
DICTIONARY
  5
681
102
{ACAD_REACTORS
330
5DC
102
}
330
5DC
100
AcDbDictionary
281
     1
  0
DICTIONARY
  5
5E6
102
{ACAD_REACTORS
330
5DC
102
}
330
5DC
100
AcDbDictionary
281
     1
  3
Standard
350
5E7
  0
DICTIONARY
  5
5E8
102
{ACAD_REACTORS
330
5DC
102
}
330
5DC
100
AcDbDictionary
281
     1
  0
ACDBDICTIONARYWDFLT
  5
5DE
102
{ACAD_REACTORS
330
5DC
102
}
330
5DC
100
AcDbDictionary
281
     1
  3
Normal
350
5DF
100
AcDbDictionaryWithDefault
340
5DF
  0
DICTIONARY
  5
616
102
{ACAD_REACTORS
330
5DC
102
}
330
5DC
100
AcDbDictionary
281
     1
  3
A0
350
617
  3
A1
350
618
  3
A2
350
619
  3
A3
350
61A
  3
A4
350
61B
  3
A5
350
61C
  3
A6
350
61D
  3
A7
350
61E
  3
A8
350
61F
  3
A9
350
620
  3
B0
350
621
  3
B1
350
622
  3
B2
350
623
  3
B3
350
624
  3
B4
350
625
  3
B5
350
626
  3
B6
350
627
  3
B7
350
628
  3
B8
350
629
  3
B9
350
62A
  3
C0
350
62B
  3
C1
350
62C
  3
C2
350
62D
  3
C3
350
62E
  3
C4
350
62F
  3
C5
350
630
  3
C6
350
631
  3
C7
350
632
  3
C8
350
633
  3
C9
350
634
  3
D0
350
635
  3
D1
350
636
  3
D2
350
637
  0
DICTIONARY
  5
683
102
{ACAD_REACTORS
330
5DC
102
}
330
5DC
100
AcDbDictionary
281
     1
  0
DICTIONARY
  5
680
102
{ACAD_REACTORS
330
5DC
102
}
330
5DC
100
AcDbDictionary
281
     1
  0
DICTIONARY
  5
5F9
102
{ACAD_REACTORS
330
5DC
102
}
330
5DC
100
AcDbDictionary
281
     1
  3
2dWireframe
350
5FE
  3
Basic
350
601
  3
Brighten
350
605
  3
ColorChange
350
609
  3
Conceptual
350
603
  3
Dim
350
604
  3
EdgeColorOff
350
60C
  3
Facepattern
350
608
  3
Flat
350
5FA
  3
FlatWithEdges
350
5FB
  3
Gouraud
350
5FC
  3
GouraudWithEdges
350
5FD
  3
Hidden
350
600
  3
JitterOff
350
60A
  3
Linepattern
350
607
  3
OverhangOff
350
60B
  3
Realistic
350
602
  3
Shaded
350
611
  3
Shaded with edges
350
610
  3
Shades of Gray
350
60D
  3
Sketchy
350
60E
  3
Thicken
350
606
  3
Wireframe
350
5FF
  3
X-Ray
350
60F
  0
DICTIONARY
  5
67E
102
{ACAD_REACTORS
330
5DC
102
}
330
5DC
100
AcDbDictionary
281
     1
  3
CANNOSCALE
350
67F
  0
DICTIONARY
  5
63A
102
{ACAD_REACTORS
330
5DC
102
}
330
5DC
100
AcDbDictionary
281
     1
  3
Grid/DisplayGrid00
350
63B
  3
Grid/DisplayGrid01
350
63C
  3
Grid/DisplayGrid02
350
63D
  3
Grid/DisplayGrid03
350
63E
  3
Grid/GridSpacingX00
350
63F
  3
Grid/GridSpacingX01
350
640
  3
Grid/GridSpacingX02
350
641
  3
Grid/GridSpacingX03
350
642
  3
Grid/GridSpacingY00
350
643
  3
Grid/GridSpacingY01
350
644
  3
Grid/GridSpacingY02
350
645
  3
Grid/GridSpacingY03
350
646
  3
Grid/IsometricGrid00
350
647
  3
Grid/IsometricGrid01
350
648
  3
Grid/IsometricGrid02
350
649
  3
Grid/IsometricGrid03
350
64A
  3
Grid/IsometricProjection00
350
64B
  3
Grid/IsometricProjection01
350
64C
  3
Grid/IsometricProjection02
350
64D
  3
Grid/IsometricProjection03
350
64E
  3
Grid/MetaGridSpacingX00
350
64F
  3
Grid/MetaGridSpacingX01
350
650
  3
Grid/MetaGridSpacingX02
350
651
  3
Grid/MetaGridSpacingX03
350
652
  3
Grid/MetaGridSpacingY00
350
653
  3
Grid/MetaGridSpacingY01
350
654
  3
Grid/MetaGridSpacingY02
350
655
  3
Grid/MetaGridSpacingY03
350
656
  3
MultiPageSettings/Columns
350
657
  3
MultiPageSettings/GlueMarginsBottom
350
658
  3
MultiPageSettings/GlueMarginsLeft
350
659
  3
MultiPageSettings/GlueMarginsRight
350
65A
  3
MultiPageSettings/GlueMarginsTop
350
65B
  3
MultiPageSettings/PrintCropMarks
350
65C
  3
MultiPageSettings/Rows
350
65D
  3
PageSettings/OffsetX
350
65E
  3
PageSettings/OffsetY
350
65F
  3
PageSettings/PageOrientation
350
660
  3
PageSettings/PaperHeight
350
661
  3
PageSettings/PaperWidth
350
662
  3
PageSettings/Scale
350
663
  3
PageSettings/ShowPaperBorders
350
664
  3
UnitSettings/PaperUnit
350
665
  0
LAYOUT
  5
5ED
102
{ACAD_REACTORS
330
5E9
102
}
330
5E9
100
AcDbPlotSettings
  1

  2
none_device
  4

  6

 40
0.0
 41
0.0
 42
0.0
 43
0.0
 44
0.0
 45
0.0
 46
0.0
 47
0.0
 48
0.0
 49
0.0
140
0.0
141
0.0
142
1.0
143
1.0
 70
   688
 72
     0
 73
     0
 74
     5
  7

 75
    16
 76
     0
 77
     2
 78
   300
147
1.0
148
0.0
149
0.0
100
AcDbLayout
  1
Layout1
 70
     1
 71
     1
 10
0.0
 20
0.0
 11
12.0
 21
9.0
 12
0.0
 22
0.0
 32
0.0
 14
1.000000000000000E+20
 24
1.000000000000000E+20
 34
1.000000000000000E+20
 15
-1.000000000000000E+20
 25
-1.000000000000000E+20
 35
-1.000000000000000E+20
146
0.0
 13
0.0
 23
0.0
 33
0.0
 16
1.0
 26
0.0
 36
0.0
 17
0.0
 27
1.0
 37
0.0
 76
     0
330
5EA
  0
LAYOUT
  5
5F5
102
{ACAD_REACTORS
330
5E9
102
}
330
5E9
100
AcDbPlotSettings
  1

  2
none_device
  4

  6

 40
0.0
 41
0.0
 42
0.0
 43
0.0
 44
0.0
 45
0.0
 46
0.0
 47
0.0
 48
0.0
 49
0.0
140
0.0
141
0.0
142
1.0
143
1.0
 70
   688
 72
     0
 73
     0
 74
     5
  7

 75
    16
 76
     0
 77
     2
 78
   300
147
1.0
148
0.0
149
0.0
100
AcDbLayout
  1
Layout2
 70
     1
 71
     2
 10
0.0
 20
0.0
 11
0.0
 21
0.0
 12
0.0
 22
0.0
 32
0.0
 14
0.0
 24
0.0
 34
0.0
 15
0.0
 25
0.0
 35
0.0
146
0.0
 13
0.0
 23
0.0
 33
0.0
 16
1.0
 26
0.0
 36
0.0
 17
0.0
 27
1.0
 37
0.0
 76
     0
330
5F2
  0
LAYOUT
  5
5F1
102
{ACAD_REACTORS
330
5E9
102
}
330
5E9
100
AcDbPlotSettings
  1

  2
none_device
  4
Letter_(8.50_x_11.00_Inches)
  6

 40
6.35
 41
6.35
 42
6.35000508
 43
6.35000508
 44
215.9
 45
279.4
 46
0.0
 47
0.0
 48
0.0
 49
0.0
140
0.0
141
0.0
142
1.0
143
1.0
 70
  1712
 72
     0
 73
     0
 74
     0
  7

 75
     0
 76
     0
 77
     2
 78
   300
147
1.0
148
0.0
149
0.0
100
AcDbLayout
  1
Model
 70
     1
 71
     0
 10
0.0
 20
0.0
 11
12.0
 21
9.0
 12
0.0
 22
0.0
 32
0.0
 14
1.000000000000000E+20
 24
1.000000000000000E+20
 34
1.000000000000000E+20
 15
-1.000000000000000E+20
 25
-1.000000000000000E+20
 35
-1.000000000000000E+20
146
0.0
 13
0.0
 23
0.0
 33
0.0
 16
1.0
 26
0.0
 36
0.0
 17
0.0
 27
1.0
 37
0.0
 76
     0
330
5EE
331
5F8
  0
MATERIAL
  5
614
102
{ACAD_REACTORS
330
612
102
}
330
612
100
AcDbMaterial
  1
ByBlock
 72
     1
 94
      127
  0
MATERIAL
  5
613
102
{ACAD_REACTORS
330
612
102
}
330
612
100
AcDbMaterial
  1
ByLayer
 72
     1
 94
      127
  0
MATERIAL
  5
615
102
{ACAD_REACTORS
330
612
102
}
330
612
100
AcDbMaterial
  1
Global
 72
     1
 94
      127
  0
MLINESTYLE
  5
5E7
102
{ACAD_REACTORS
330
5E6
102
}
330
5E6
100
AcDbMlineStyle
  2
Standard
 70
     0
  3

 62
   256
 51
90.0
 52
90.0
 71
     2
 49
0.5
 62
   256
  6
BYLAYER
 49
-0.5
 62
   256
  6
BYLAYER
  0
ACDBPLACEHOLDER
  5
5DF
102
{ACAD_REACTORS
330
5DE
102
}
330
5DE
  0
SCALE
  5
617
102
{ACAD_REACTORS
330
616
102
}
330
616
100
AcDbScale
 70
     0
300
1:1
140
1.0
141
1.0
290
     1
  0
SCALE
  5
618
102
{ACAD_REACTORS
330
616
102
}
330
616
100
AcDbScale
 70
     0
300
1:2
140
1.0
141
2.0
290
     0
  0
SCALE
  5
619
102
{ACAD_REACTORS
330
616
102
}
330
616
100
AcDbScale
 70
     0
300
1:4
140
1.0
141
4.0
290
     0
  0
SCALE
  5
61A
102
{ACAD_REACTORS
330
616
102
}
330
616
100
AcDbScale
 70
     0
300
1:5
140
1.0
141
5.0
290
     0
  0
SCALE
  5
61B
102
{ACAD_REACTORS
330
616
102
}
330
616
100
AcDbScale
 70
     0
300
1:8
140
1.0
141
8.0
290
     0
  0
SCALE
  5
61C
102
{ACAD_REACTORS
330
616
102
}
330
616
100
AcDbScale
 70
     0
300
1:10
140
1.0
141
10.0
290
     0
  0
SCALE
  5
61D
102
{ACAD_REACTORS
330
616
102
}
330
616
100
AcDbScale
 70
     0
300
1:16
140
1.0
141
16.0
290
     0
  0
SCALE
  5
61E
102
{ACAD_REACTORS
330
616
102
}
330
616
100
AcDbScale
 70
     0
300
1:20
140
1.0
141
20.0
290
     0
  0
SCALE
  5
61F
102
{ACAD_REACTORS
330
616
102
}
330
616
100
AcDbScale
 70
     0
300
1:30
140
1.0
141
30.0
290
     0
  0
SCALE
  5
620
102
{ACAD_REACTORS
330
616
102
}
330
616
100
AcDbScale
 70
     0
300
1:40
140
1.0
141
40.0
290
     0
  0
SCALE
  5
621
102
{ACAD_REACTORS
330
616
102
}
330
616
100
AcDbScale
 70
     0
300
1:50
140
1.0
141
50.0
290
     0
  0
SCALE
  5
622
102
{ACAD_REACTORS
330
616
102
}
330
616
100
AcDbScale
 70
     0
300
1:100
140
1.0
141
100.0
290
     0
  0
SCALE
  5
623
102
{ACAD_REACTORS
330
616
102
}
330
616
100
AcDbScale
 70
     0
300
2:1
140
2.0
141
1.0
290
     0
  0
SCALE
  5
624
102
{ACAD_REACTORS
330
616
102
}
330
616
100
AcDbScale
 70
     0
300
4:1
140
4.0
141
1.0
290
     0
  0
SCALE
  5
625
102
{ACAD_REACTORS
330
616
102
}
330
616
100
AcDbScale
 70
     0
300
8:1
140
8.0
141
1.0
290
     0
  0
SCALE
  5
626
102
{ACAD_REACTORS
330
616
102
}
330
616
100
AcDbScale
 70
     0
300
10:1
140
10.0
141
1.0
290
     0
  0
SCALE
  5
627
102
{ACAD_REACTORS
330
616
102
}
330
616
100
AcDbScale
 70
     0
300
100:1
140
100.0
141
1.0
290
     0
  0
SCALE
  5
628
102
{ACAD_REACTORS
330
616
102
}
330
616
100
AcDbScale
 70
     0
300
1/128" = 1'-0"
140
0.0078125
141
12.0
290
     0
  0
SCALE
  5
629
102
{ACAD_REACTORS
330
616
102
}
330
616
100
AcDbScale
 70
     0
300
1/64" = 1'-0"
140
0.015625
141
12.0
290
     0
  0
SCALE
  5
62A
102
{ACAD_REACTORS
330
616
102
}
330
616
100
AcDbScale
 70
     0
300
1/32" = 1'-0"
140
0.03125
141
12.0
290
     0
  0
SCALE
  5
62B
102
{ACAD_REACTORS
330
616
102
}
330
616
100
AcDbScale
 70
     0
300
1/16" = 1'-0"
140
0.0625
141
12.0
290
     0
  0
SCALE
  5
62C
102
{ACAD_REACTORS
330
616
102
}
330
616
100
AcDbScale
 70
     0
300
3/32" = 1'-0"
140
0.09375
141
12.0
290
     0
  0
SCALE
  5
62D
102
{ACAD_REACTORS
330
616
102
}
330
616
100
AcDbScale
 70
     0
300
1/8" = 1'-0"
140
0.125
141
12.0
290
     0
  0
SCALE
  5
62E
102
{ACAD_REACTORS
330
616
102
}
330
616
100
AcDbScale
 70
     0
300
3/16" = 1'-0"
140
0.1875
141
12.0
290
     0
  0
SCALE
  5
62F
102
{ACAD_REACTORS
330
616
102
}
330
616
100
AcDbScale
 70
     0
300
1/4" = 1'-0"
140
0.25
141
12.0
290
     0
  0
SCALE
  5
630
102
{ACAD_REACTORS
330
616
102
}
330
616
100
AcDbScale
 70
     0
300
3/8" = 1'-0"
140
0.375
141
12.0
290
     0
  0
SCALE
  5
631
102
{ACAD_REACTORS
330
616
102
}
330
616
100
AcDbScale
 70
     0
300
1/2" = 1'-0"
140
0.5
141
12.0
290
     0
  0
SCALE
  5
632
102
{ACAD_REACTORS
330
616
102
}
330
616
100
AcDbScale
 70
     0
300
3/4" = 1'-0"
140
0.75
141
12.0
290
     0
  0
SCALE
  5
633
102
{ACAD_REACTORS
330
616
102
}
330
616
100
AcDbScale
 70
     0
300
1" = 1'-0"
140
1.0
141
12.0
290
     0
  0
SCALE
  5
634
102
{ACAD_REACTORS
330
616
102
}
330
616
100
AcDbScale
 70
     0
300
1-1/2" = 1'-0"
140
1.5
141
12.0
290
     0
  0
SCALE
  5
635
102
{ACAD_REACTORS
330
616
102
}
330
616
100
AcDbScale
 70
     0
300
3" = 1'-0"
140
3.0
141
12.0
290
     0
  0
SCALE
  5
636
102
{ACAD_REACTORS
330
616
102
}
330
616
100
AcDbScale
 70
     0
300
6" = 1'-0"
140
6.0
141
12.0
290
     0
  0
SCALE
  5
637
102
{ACAD_REACTORS
330
616
102
}
330
616
100
AcDbScale
 70
     0
300
1'-0" = 1'-0"
140
12.0
141
12.0
290
     0
  0
VISUALSTYLE
  5
5FE
102
{ACAD_REACTORS
330
5F9
102
}
330
5F9
100
AcDbVisualStyle
  2
2dWireframe
 70
     4
177
     3
291
     0
 70
    58
 90
        0
176
     1
 90
        2
176
     1
 90
        0
176
     1
 90
        0
176
     1
 40
0.6
176
     1
 40
30.0
176
     1
 62
     7
420
 16777215
176
     1
 90
        1
176
     1
 90
        4
176
     1
 62
     7
176
     1
 62
   257
176
     1
 90
        1
176
     1
 90
        1
176
     1
 40
1.0
176
     1
 90
        0
176
     1
 62
   257
176
     1
 40
1.0
176
     1
 90
        1
176
     1
 90
        6
176
     1
 90
        2
176
     1
 62
     7
176
     1
 90
        5
176
     1
 90
        0
176
     1
 90
        0
176
     1
290
     0
176
     1
 90
        1
176
     1
 40
0.0
176
     1
 90
        0
176
     1
290
     1
176
     1
290
     1
176
     1
290
     0
176
     1
290
     0
176
     1
290
     0
176
     1
290
     0
176
     1
290
     0
176
     1
290
     0
176
     1
290
     0
176
     1
 90
       50
176
     1
 40
0.0
176
     1
 40
1.0
176
     1
 90
        0
176
     1
 62
    18
420
        0
176
     1
 90
       50
176
     1
 90
        3
176
     1
 62
     5
420
      255
176
     1
290
     0
176
     1
 90
       50
176
     1
 90
       50
176
     1
 90
       50
176
     1
290
     0
176
     1
 90
       50
176
     1
 62
   256
176
     0
 40
1.0
176
     0
 90
        2
176
     1
  1
strokes_ogs.tif
176
     1
290
     0
176
     1
 40
1.0
176
     1
 40
1.0
176
     1
  0
VISUALSTYLE
  5
601
102
{ACAD_REACTORS
330
5F9
102
}
330
5F9
100
AcDbVisualStyle
  2
Basic
 70
     7
177
     3
291
     1
 70
    58
 90
        1
176
     1
 90
        0
176
     1
 90
        1
176
     1
 90
        0
176
     1
 40
0.6
176
     1
 40
30.0
176
     1
 62
     7
420
 16777215
176
     1
 90
        0
176
     1
 90
        4
176
     1
 62
     7
176
     1
 62
   257
176
     1
 90
        1
176
     1
 90
        1
176
     1
 40
1.0
176
     1
 90
        8
176
     1
 62
     7
176
     1
 40
1.0
176
     1
 90
        1
176
     1
 90
        6
176
     1
 90
        2
176
     1
 62
     7
176
     1
 90
        5
176
     1
 90
        0
176
     1
 90
        0
176
     1
290
     0
176
     1
 90
        1
176
     1
 40
0.0
176
     1
 90
        0
176
     1
290
     0
176
     1
290
     1
176
     1
290
     1
176
     1
290
     0
176
     1
290
     0
176
     1
290
     0
176
     1
290
     0
176
     1
290
     0
176
     1
290
     0
176
     1
 90
       50
176
     1
 40
0.0
176
     1
 40
1.0
176
     1
 90
        0
176
     1
 62
    18
420
        0
176
     1
 90
       50
176
     1
 90
        3
176
     1
 62
     5
420
      255
176
     1
290
     0
176
     1
 90
       50
176
     1
 90
       50
176
     1
 90
       50
176
     1
290
     0
176
     1
 90
       50
176
     1
 62
   256
176
     0
 40
1.0
176
     0
 90
        2
176
     1
  1
strokes_ogs.tif
176
     1
290
     0
176
     1
 40
1.0
176
     1
 40
1.0
176
     1
  0
VISUALSTYLE
  5
605
102
{ACAD_REACTORS
330
5F9
102
}
330
5F9
100
AcDbVisualStyle
  2
Brighten
 70
    12
177
     3
291
     1
 70
    58
 90
        2
176
     1
 90
        2
176
     1
 90
        0
176
     1
 90
        0
176
     1
 40
0.6
176
     1
 40
30.0
176
     1
 62
     7
420
 16777215
176
     1
 90
        1
176
     1
 90
        4
176
     1
 62
     7
176
     1
 62
   257
176
     1
 90
        1
176
     1
 90
        1
176
     1
 40
1.0
176
     1
 90
        8
176
     1
 62
     7
176
     1
 40
1.0
176
     1
 90
        1
176
     1
 90
        6
176
     1
 90
        2
176
     1
 62
     7
176
     1
 90
        5
176
     1
 90
        0
176
     1
 90
        0
176
     1
290
     0
176
     1
 90
        1
176
     1
 40
50.0
176
     1
 90
        0
176
     1
290
     0
176
     1
290
     1
176
     1
290
     1
176
     1
290
     0
176
     1
290
     0
176
     1
290
     0
176
     1
290
     0
176
     1
290
     0
176
     1
290
     0
176
     1
 90
       50
176
     1
 40
0.0
176
     1
 40
1.0
176
     1
 90
        0
176
     1
 62
    18
420
        0
176
     1
 90
       50
176
     1
 90
        3
176
     1
 62
     5
420
      255
176
     1
290
     0
176
     1
 90
       50
176
     1
 90
       50
176
     1
 90
       50
176
     1
290
     0
176
     1
 90
       50
176
     1
 62
   256
176
     0
 40
1.0
176
     0
 90
        2
176
     1
  1
strokes_ogs.tif
176
     1
290
     0
176
     1
 40
1.0
176
     1
 40
1.0
176
     1
  0
VISUALSTYLE
  5
609
102
{ACAD_REACTORS
330
5F9
102
}
330
5F9
100
AcDbVisualStyle
  2
ColorChange
 70
    16
177
     3
291
     1
 70
    58
 90
        2
176
     1
 90
        2
176
     1
 90
        3
176
     1
 90
        0
176
     1
 40
0.6
176
     1
 40
30.0
176
     1
 62
     8
420
  8421504
176
     1
 90
        1
176
     1
 90
        4
176
     1
 62
     7
176
     1
 62
   257
176
     1
 90
        1
176
     1
 90
        1
176
     1
 40
1.0
176
     1
 90
        8
176
     1
 62
     8
420
  8421504
176
     1
 40
1.0
176
     1
 90
        1
176
     1
 90
        6
176
     1
 90
        2
176
     1
 62
     7
176
     1
 90
        5
176
     1
 90
        0
176
     1
 90
        0
176
     1
290
     0
176
     1
 90
        1
176
     1
 40
0.0
176
     1
 90
        0
176
     1
290
     0
176
     1
290
     1
176
     1
290
     1
176
     1
290
     0
176
     1
290
     0
176
     1
290
     0
176
     1
290
     0
176
     1
290
     0
176
     1
290
     0
176
     1
 90
       50
176
     1
 40
0.0
176
     1
 40
1.0
176
     1
 90
        0
176
     1
 62
    18
420
        0
176
     1
 90
       50
176
     1
 90
        3
176
     1
 62
     5
420
      255
176
     1
290
     0
176
     1
 90
       50
176
     1
 90
       50
176
     1
 90
       50
176
     1
290
     0
176
     1
 90
       50
176
     1
 62
   256
176
     0
 40
1.0
176
     0
 90
        2
176
     1
  1
strokes_ogs.tif
176
     1
290
     0
176
     1
 40
1.0
176
     1
 40
1.0
176
     1
  0
VISUALSTYLE
  5
603
102
{ACAD_REACTORS
330
5F9
102
}
330
5F9
100
AcDbVisualStyle
  2
Conceptual
 70
     9
177
     3
291
     0
 70
    58
 90
        3
176
     1
 90
        2
176
     1
 90
        0
176
     1
 90
        0
176
     1
 40
0.6
176
     1
 40
30.0
176
     1
 62
     7
420
 16777215
176
     1
 90
        2
176
     1
 90
        2
176
     1
 62
     7
176
     1
 62
   257
176
     1
 90
        1
176
     1
 90
        1
176
     1
 40
179.0
176
     1
 90
        8
176
     1
 62
     7
176
     1
 40
1.0
176
     1
 90
        1
176
     1
 90
        6
176
     1
 90
        2
176
     1
 62
     7
176
     1
 90
        3
176
     1
 90
        0
176
     1
 90
        0
176
     1
290
     0
176
     1
 90
        1
176
     1
 40
0.0
176
     1
 90
        0
176
     1
290
     0
176
     1
290
     1
176
     1
290
     1
176
     1
290
     0
176
     1
290
     0
176
     1
290
     0
176
     1
290
     0
176
     1
290
     0
176
     1
290
     0
176
     1
 90
       50
176
     1
 40
0.0
176
     1
 40
1.0
176
     1
 90
        0
176
     1
 62
    18
420
        0
176
     1
 90
       50
176
     1
 90
        3
176
     1
 62
     5
420
      255
176
     1
290
     0
176
     1
 90
       50
176
     1
 90
       50
176
     1
 90
       50
176
     1
290
     0
176
     1
 90
       50
176
     1
 62
   256
176
     0
 40
1.0
176
     0
 90
        2
176
     1
  1
strokes_ogs.tif
176
     1
290
     0
176
     1
 40
1.0
176
     1
 40
1.0
176
     1
  0
VISUALSTYLE
  5
604
102
{ACAD_REACTORS
330
5F9
102
}
330
5F9
100
AcDbVisualStyle
  2
Dim
 70
    11
177
     3
291
     1
 70
    58
 90
        2
176
     1
 90
        2
176
     1
 90
        0
176
     1
 90
        0
176
     1
 40
0.6
176
     1
 40
30.0
176
     1
 62
     7
420
 16777215
176
     1
 90
        1
176
     1
 90
        4
176
     1
 62
     7
176
     1
 62
   257
176
     1
 90
        1
176
     1
 90
        1
176
     1
 40
1.0
176
     1
 90
        8
176
     1
 62
     7
176
     1
 40
1.0
176
     1
 90
        1
176
     1
 90
        6
176
     1
 90
        2
176
     1
 62
     7
176
     1
 90
        5
176
     1
 90
        0
176
     1
 90
        0
176
     1
290
     0
176
     1
 90
        1
176
     1
 40
-50.0
176
     1
 90
        0
176
     1
290
     0
176
     1
290
     1
176
     1
290
     1
176
     1
290
     0
176
     1
290
     0
176
     1
290
     0
176
     1
290
     0
176
     1
290
     0
176
     1
290
     0
176
     1
 90
       50
176
     1
 40
0.0
176
     1
 40
1.0
176
     1
 90
        0
176
     1
 62
    18
420
        0
176
     1
 90
       50
176
     1
 90
        3
176
     1
 62
     5
420
      255
176
     1
290
     0
176
     1
 90
       50
176
     1
 90
       50
176
     1
 90
       50
176
     1
290
     0
176
     1
 90
       50
176
     1
 62
   256
176
     0
 40
1.0
176
     0
 90
        2
176
     1
  1
strokes_ogs.tif
176
     1
290
     0
176
     1
 40
1.0
176
     1
 40
1.0
176
     1
  0
VISUALSTYLE
  5
60C
102
{ACAD_REACTORS
330
5F9
102
}
330
5F9
100
AcDbVisualStyle
  2
EdgeColorOff
 70
    22
177
     3
291
     1
 70
    58
 90
        2
176
     0
 90
        2
176
     0
 90
        0
176
     0
 90
        0
176
     0
 40
0.6
176
     0
 40
30.0
176
     0
 62
     7
420
 16777215
176
     0
 90
        1
176
     0
 90
        4
176
     0
 62
     7
176
     0
 62
   257
176
     0
 90
        1
176
     0
 90
        1
176
     0
 40
1.0
176
     0
 90
        8
176
     2
 62
     7
176
     0
 40
1.0
176
     0
 90
        1
176
     0
 90
        6
176
     0
 90
        2
176
     0
 62
     7
176
     0
 90
        5
176
     0
 90
        0
176
     0
 90
        0
176
     0
290
     0
176
     0
 90
        1
176
     0
 40
0.0
176
     0
 90
        0
176
     0
290
     0
176
     0
290
     1
176
     0
290
     1
176
     0
290
     0
176
     0
290
     0
176
     0
290
     0
176
     0
290
     0
176
     0
290
     0
176
     0
290
     0
176
     0
 90
       50
176
     0
 40
0.0
176
     0
 40
1.0
176
     0
 90
        0
176
     0
 62
    18
420
        0
176
     0
 90
       50
176
     0
 90
        3
176
     0
 62
     5
420
      255
176
     0
290
     0
176
     0
 90
       50
176
     0
 90
       50
176
     0
 90
       50
176
     0
290
     0
176
     0
 90
       50
176
     0
 62
   256
176
     0
 40
1.0
176
     0
 90
        2
176
     0
  1
strokes_ogs.tif
176
     0
290
     0
176
     0
 40
1.0
176
     0
 40
1.0
176
     0
  0
VISUALSTYLE
  5
608
102
{ACAD_REACTORS
330
5F9
102
}
330
5F9
100
AcDbVisualStyle
  2
Facepattern
 70
    15
177
     3
291
     1
 70
    58
 90
        2
176
     1
 90
        2
176
     1
 90
        0
176
     1
 90
        0
176
     1
 40
0.6
176
     1
 40
30.0
176
     1
 62
     7
420
 16777215
176
     1
 90
        1
176
     1
 90
        4
176
     1
 62
     7
176
     1
 62
   257
176
     1
 90
        1
176
     1
 90
        1
176
     1
 40
1.0
176
     1
 90
        8
176
     1
 62
     7
176
     1
 40
1.0
176
     1
 90
        1
176
     1
 90
        6
176
     1
 90
        2
176
     1
 62
     7
176
     1
 90
        5
176
     1
 90
        0
176
     1
 90
        0
176
     1
290
     0
176
     1
 90
        1
176
     1
 40
0.0
176
     1
 90
        0
176
     1
290
     0
176
     1
290
     1
176
     1
290
     1
176
     1
290
     0
176
     1
290
     0
176
     1
290
     0
176
     1
290
     0
176
     1
290
     0
176
     1
290
     0
176
     1
 90
       50
176
     1
 40
0.0
176
     1
 40
1.0
176
     1
 90
        0
176
     1
 62
    18
420
        0
176
     1
 90
       50
176
     1
 90
        3
176
     1
 62
     5
420
      255
176
     1
290
     0
176
     1
 90
       50
176
     1
 90
       50
176
     1
 90
       50
176
     1
290
     0
176
     1
 90
       50
176
     1
 62
   256
176
     0
 40
1.0
176
     0
 90
        2
176
     1
  1
strokes_ogs.tif
176
     1
290
     0
176
     1
 40
1.0
176
     1
 40
1.0
176
     1
  0
VISUALSTYLE
  5
5FA
102
{ACAD_REACTORS
330
5F9
102
}
330
5F9
100
AcDbVisualStyle
  2
Flat
 70
     0
177
     3
291
     1
 70
    58
 90
        2
176
     1
 90
        1
176
     1
 90
        1
176
     1
 90
        2
176
     1
 40
0.6
176
     1
 40
30.0
176
     1
 62
     7
420
 16777215
176
     1
 90
        0
176
     1
 90
        0
176
     1
 62
     7
176
     1
 62
   257
176
     1
 90
        1
176
     1
 90
        1
176
     1
 40
1.0
176
     1
 90
        8
176
     1
 62
     7
176
     1
 40
1.0
176
     1
 90
        1
176
     1
 90
        6
176
     1
 90
        2
176
     1
 62
     7
176
     1
 90
        5
176
     1
 90
        0
176
     1
 90
        0
176
     1
290
     0
176
     1
 90
       13
176
     1
 40
0.0
176
     1
 90
        0
176
     1
290
     0
176
     1
290
     1
176
     1
290
     1
176
     1
290
     0
176
     1
290
     0
176
     1
290
     0
176
     1
290
     0
176
     1
290
     0
176
     1
290
     0
176
     1
 90
       50
176
     1
 40
0.0
176
     1
 40
1.0
176
     1
 90
        0
176
     1
 62
    18
420
        0
176
     1
 90
       50
176
     1
 90
        3
176
     1
 62
     5
420
      255
176
     1
290
     0
176
     1
 90
       50
176
     1
 90
       50
176
     1
 90
       50
176
     1
290
     0
176
     1
 90
       50
176
     1
 62
   256
176
     0
 40
1.0
176
     0
 90
        2
176
     1
  1
strokes_ogs.tif
176
     1
290
     0
176
     1
 40
1.0
176
     1
 40
1.0
176
     1
  0
VISUALSTYLE
  5
5FB
102
{ACAD_REACTORS
330
5F9
102
}
330
5F9
100
AcDbVisualStyle
  2
FlatWithEdges
 70
     1
177
     3
291
     1
 70
    58
 90
        2
176
     1
 90
        1
176
     1
 90
        1
176
     1
 90
        2
176
     1
 40
0.6
176
     1
 40
30.0
176
     1
 62
     7
420
 16777215
176
     1
 90
        1
176
     1
 90
        0
176
     1
 62
     7
176
     1
 62
   257
176
     1
 90
        1
176
     1
 90
        1
176
     1
 40
1.0
176
     1
 90
        0
176
     1
 62
   257
176
     1
 40
1.0
176
     1
 90
        1
176
     1
 90
        6
176
     1
 90
        2
176
     1
 62
     7
176
     1
 90
        5
176
     1
 90
        0
176
     1
 90
        0
176
     1
290
     0
176
     1
 90
       13
176
     1
 40
0.0
176
     1
 90
        0
176
     1
290
     0
176
     1
290
     1
176
     1
290
     1
176
     1
290
     0
176
     1
290
     0
176
     1
290
     0
176
     1
290
     0
176
     1
290
     0
176
     1
290
     0
176
     1
 90
       50
176
     1
 40
0.0
176
     1
 40
1.0
176
     1
 90
        0
176
     1
 62
    18
420
        0
176
     1
 90
       50
176
     1
 90
        3
176
     1
 62
     5
420
      255
176
     1
290
     0
176
     1
 90
       50
176
     1
 90
       50
176
     1
 90
       50
176
     1
290
     0
176
     1
 90
       50
176
     1
 62
   256
176
     0
 40
1.0
176
     0
 90
        2
176
     1
  1
strokes_ogs.tif
176
     1
290
     0
176
     1
 40
1.0
176
     1
 40
1.0
176
     1
  0
VISUALSTYLE
  5
5FC
102
{ACAD_REACTORS
330
5F9
102
}
330
5F9
100
AcDbVisualStyle
  2
Gouraud
 70
     2
177
     3
291
     1
 70
    58
 90
        2
176
     1
 90
        2
176
     1
 90
        1
176
     1
 90
        2
176
     1
 40
0.6
176
     1
 40
30.0
176
     1
 62
     7
420
 16777215
176
     1
 90
        0
176
     1
 90
        0
176
     1
 62
     7
176
     1
 62
   257
176
     1
 90
        1
176
     1
 90
        1
176
     1
 40
1.0
176
     1
 90
        0
176
     1
 62
     7
176
     1
 40
1.0
176
     1
 90
        1
176
     1
 90
        6
176
     1
 90
        2
176
     1
 62
     7
176
     1
 90
        5
176
     1
 90
        0
176
     1
 90
        0
176
     1
290
     0
176
     1
 90
       13
176
     1
 40
0.0
176
     1
 90
        0
176
     1
290
     0
176
     1
290
     1
176
     1
290
     1
176
     1
290
     0
176
     1
290
     0
176
     1
290
     0
176
     1
290
     0
176
     1
290
     0
176
     1
290
     0
176
     1
 90
       50
176
     1
 40
0.0
176
     1
 40
1.0
176
     1
 90
        0
176
     1
 62
    18
420
        0
176
     1
 90
       50
176
     1
 90
        3
176
     1
 62
     5
420
      255
176
     1
290
     0
176
     1
 90
       50
176
     1
 90
       50
176
     1
 90
       50
176
     1
290
     0
176
     1
 90
       50
176
     1
 62
   256
176
     0
 40
1.0
176
     0
 90
        2
176
     1
  1
strokes_ogs.tif
176
     1
290
     0
176
     1
 40
1.0
176
     1
 40
1.0
176
     1
  0
VISUALSTYLE
  5
5FD
102
{ACAD_REACTORS
330
5F9
102
}
330
5F9
100
AcDbVisualStyle
  2
GouraudWithEdges
 70
     3
177
     3
291
     1
 70
    58
 90
        2
176
     1
 90
        2
176
     1
 90
        1
176
     1
 90
        2
176
     1
 40
0.6
176
     1
 40
30.0
176
     1
 62
     7
420
 16777215
176
     1
 90
        1
176
     1
 90
        0
176
     1
 62
     7
176
     1
 62
   257
176
     1
 90
        1
176
     1
 90
        1
176
     1
 40
1.0
176
     1
 90
        0
176
     1
 62
   257
176
     1
 40
1.0
176
     1
 90
        1
176
     1
 90
        6
176
     1
 90
        2
176
     1
 62
     7
176
     1
 90
        5
176
     1
 90
        0
176
     1
 90
        0
176
     1
290
     0
176
     1
 90
       13
176
     1
 40
0.0
176
     1
 90
        0
176
     1
290
     0
176
     1
290
     1
176
     1
290
     1
176
     1
290
     0
176
     1
290
     0
176
     1
290
     0
176
     1
290
     0
176
     1
290
     0
176
     1
290
     0
176
     1
 90
       50
176
     1
 40
0.0
176
     1
 40
1.0
176
     1
 90
        0
176
     1
 62
    18
420
        0
176
     1
 90
       50
176
     1
 90
        3
176
     1
 62
     5
420
      255
176
     1
290
     0
176
     1
 90
       50
176
     1
 90
       50
176
     1
 90
       50
176
     1
290
     0
176
     1
 90
       50
176
     1
 62
   256
176
     0
 40
1.0
176
     0
 90
        2
176
     1
  1
strokes_ogs.tif
176
     1
290
     0
176
     1
 40
1.0
176
     1
 40
1.0
176
     1
  0
VISUALSTYLE
  5
600
102
{ACAD_REACTORS
330
5F9
102
}
330
5F9
100
AcDbVisualStyle
  2
Hidden
 70
     6
177
     3
291
     0
 70
    58
 90
        1
176
     1
 90
        2
176
     1
 90
        2
176
     1
 90
        0
176
     1
 40
0.6
176
     1
 40
30.0
176
     1
 62
     7
420
 16777215
176
     1
 90
        2
176
     1
 90
        2
176
     1
 62
     7
176
     1
 62
   257
176
     1
 90
        2
176
     1
 90
        1
176
     1
 40
40.0
176
     1
 90
        0
176
     1
 62
   257
176
     1
 40
1.0
176
     1
 90
        1
176
     1
 90
        6
176
     1
 90
        2
176
     1
 62
     7
176
     1
 90
        3
176
     1
 90
        0
176
     1
 90
        0
176
     1
290
     0
176
     1
 90
        1
176
     1
 40
0.0
176
     1
 90
        0
176
     1
290
     0
176
     1
290
     1
176
     1
290
     1
176
     1
290
     0
176
     1
290
     0
176
     1
290
     0
176
     1
290
     0
176
     1
290
     0
176
     1
290
     0
176
     1
 90
       50
176
     1
 40
0.0
176
     1
 40
1.0
176
     1
 90
        0
176
     1
 62
    18
420
        0
176
     1
 90
       50
176
     1
 90
        3
176
     1
 62
     5
420
      255
176
     1
290
     0
176
     1
 90
       50
176
     1
 90
       50
176
     1
 90
       50
176
     1
290
     0
176
     1
 90
       50
176
     1
 62
   256
176
     0
 40
1.0
176
     0
 90
        2
176
     1
  1
strokes_ogs.tif
176
     1
290
     0
176
     1
 40
1.0
176
     1
 40
1.0
176
     1
  0
VISUALSTYLE
  5
60A
102
{ACAD_REACTORS
330
5F9
102
}
330
5F9
100
AcDbVisualStyle
  2
JitterOff
 70
    20
177
     3
291
     1
 70
    58
 90
        2
176
     0
 90
        2
176
     0
 90
        0
176
     0
 90
        0
176
     0
 40
0.6
176
     0
 40
30.0
176
     0
 62
     7
420
 16777215
176
     0
 90
        1
176
     0
 90
        4
176
     0
 62
     7
176
     0
 62
   257
176
     0
 90
        1
176
     0
 90
        1
176
     0
 40
1.0
176
     0
 90
       10
176
     2
 62
     7
176
     0
 40
1.0
176
     0
 90
        1
176
     0
 90
        6
176
     0
 90
        2
176
     0
 62
     7
176
     0
 90
        5
176
     0
 90
        0
176
     0
 90
        0
176
     0
290
     0
176
     0
 90
        1
176
     0
 40
0.0
176
     0
 90
        0
176
     0
290
     0
176
     0
290
     1
176
     0
290
     1
176
     0
290
     0
176
     0
290
     0
176
     0
290
     0
176
     0
290
     0
176
     0
290
     0
176
     0
290
     0
176
     0
 90
       50
176
     0
 40
0.0
176
     0
 40
1.0
176
     0
 90
        0
176
     0
 62
    18
420
        0
176
     0
 90
       50
176
     0
 90
        3
176
     0
 62
     5
420
      255
176
     0
290
     0
176
     0
 90
       50
176
     0
 90
       50
176
     0
 90
       50
176
     0
290
     0
176
     0
 90
       50
176
     0
 62
   256
176
     0
 40
1.0
176
     0
 90
        2
176
     0
  1
strokes_ogs.tif
176
     0
290
     0
176
     0
 40
1.0
176
     0
 40
1.0
176
     0
  0
VISUALSTYLE
  5
607
102
{ACAD_REACTORS
330
5F9
102
}
330
5F9
100
AcDbVisualStyle
  2
Linepattern
 70
    14
177
     3
291
     1
 70
    58
 90
        2
176
     1
 90
        2
176
     1
 90
        0
176
     1
 90
        0
176
     1
 40
0.6
176
     1
 40
30.0
176
     1
 62
     7
420
 16777215
176
     1
 90
        1
176
     1
 90
        4
176
     1
 62
     7
176
     1
 62
   257
176
     1
 90
        7
176
     1
 90
        7
176
     1
 40
1.0
176
     1
 90
        8
176
     1
 62
     7
176
     1
 40
1.0
176
     1
 90
        1
176
     1
 90
        6
176
     1
 90
        2
176
     1
 62
     7
176
     1
 90
        5
176
     1
 90
        0
176
     1
 90
        0
176
     1
290
     0
176
     1
 90
        1
176
     1
 40
0.0
176
     1
 90
        0
176
     1
290
     0
176
     1
290
     1
176
     1
290
     1
176
     1
290
     0
176
     1
290
     0
176
     1
290
     0
176
     1
290
     0
176
     1
290
     0
176
     1
290
     0
176
     1
 90
       50
176
     1
 40
0.0
176
     1
 40
1.0
176
     1
 90
        0
176
     1
 62
    18
420
        0
176
     1
 90
       50
176
     1
 90
        3
176
     1
 62
     5
420
      255
176
     1
290
     0
176
     1
 90
       50
176
     1
 90
       50
176
     1
 90
       50
176
     1
290
     0
176
     1
 90
       50
176
     1
 62
   256
176
     0
 40
1.0
176
     0
 90
        2
176
     1
  1
strokes_ogs.tif
176
     1
290
     0
176
     1
 40
1.0
176
     1
 40
1.0
176
     1
  0
VISUALSTYLE
  5
60B
102
{ACAD_REACTORS
330
5F9
102
}
330
5F9
100
AcDbVisualStyle
  2
OverhangOff
 70
    21
177
     3
291
     1
 70
    58
 90
        2
176
     0
 90
        2
176
     0
 90
        0
176
     0
 90
        0
176
     0
 40
0.6
176
     0
 40
30.0
176
     0
 62
     7
420
 16777215
176
     0
 90
        1
176
     0
 90
        4
176
     0
 62
     7
176
     0
 62
   257
176
     0
 90
        1
176
     0
 90
        1
176
     0
 40
1.0
176
     0
 90
        9
176
     2
 62
     7
176
     0
 40
1.0
176
     0
 90
        1
176
     0
 90
        6
176
     0
 90
        2
176
     0
 62
     7
176
     0
 90
        5
176
     0
 90
        0
176
     0
 90
        0
176
     0
290
     0
176
     0
 90
        1
176
     0
 40
0.0
176
     0
 90
        0
176
     0
290
     0
176
     0
290
     1
176
     0
290
     1
176
     0
290
     0
176
     0
290
     0
176
     0
290
     0
176
     0
290
     0
176
     0
290
     0
176
     0
290
     0
176
     0
 90
       50
176
     0
 40
0.0
176
     0
 40
1.0
176
     0
 90
        0
176
     0
 62
    18
420
        0
176
     0
 90
       50
176
     0
 90
        3
176
     0
 62
     5
420
      255
176
     0
290
     0
176
     0
 90
       50
176
     0
 90
       50
176
     0
 90
       50
176
     0
290
     0
176
     0
 90
       50
176
     0
 62
   256
176
     0
 40
1.0
176
     0
 90
        2
176
     0
  1
strokes_ogs.tif
176
     0
290
     0
176
     0
 40
1.0
176
     0
 40
1.0
176
     0
  0
VISUALSTYLE
  5
602
102
{ACAD_REACTORS
330
5F9
102
}
330
5F9
100
AcDbVisualStyle
  2
Realistic
 70
     8
177
     3
291
     0
 70
    58
 90
        2
176
     1
 90
        3
176
     1
 90
        0
176
     1
 90
        2
176
     1
 40
0.6
176
     1
 40
30.0
176
     1
 62
     7
420
 16777215
176
     1
 90
        0
176
     1
 90
        0
176
     1
 62
     7
176
     1
 62
   257
176
     1
 90
        1
176
     1
 90
        1
176
     1
 40
1.0
176
     1
 90
        8
176
     1
 62
   257
176
     1
 40
1.0
176
     1
 90
        1
176
     1
 90
        6
176
     1
 90
        2
176
     1
 62
     7
176
     1
 90
        3
176
     1
 90
        0
176
     1
 90
        0
176
     1
290
     0
176
     1
 90
       13
176
     1
 40
0.0
176
     1
 90
        0
176
     1
290
     0
176
     1
290
     1
176
     1
290
     1
176
     1
290
     0
176
     1
290
     0
176
     1
290
     0
176
     1
290
     0
176
     1
290
     0
176
     1
290
     0
176
     1
 90
       50
176
     1
 40
0.0
176
     1
 40
1.0
176
     1
 90
        0
176
     1
 62
    18
420
        0
176
     1
 90
       50
176
     1
 90
        3
176
     1
 62
     5
420
      255
176
     1
290
     0
176
     1
 90
       50
176
     1
 90
       50
176
     1
 90
       50
176
     1
290
     0
176
     1
 90
       50
176
     1
 62
   256
176
     0
 40
1.0
176
     0
 90
        2
176
     1
  1
strokes_ogs.tif
176
     1
290
     0
176
     1
 40
1.0
176
     1
 40
1.0
176
     1
  0
VISUALSTYLE
  5
611
102
{ACAD_REACTORS
330
5F9
102
}
330
5F9
100
AcDbVisualStyle
  2
Shaded
 70
    27
177
     3
291
     0
 70
    58
 90
        2
176
     1
 90
        2
176
     1
 90
        1
176
     1
 90
        2
176
     1
 40
0.6
176
     1
 40
30.0
176
     1
 62
     7
420
 16777215
176
     1
 90
        0
176
     1
 90
        4
176
     1
 62
     7
176
     1
 62
   257
176
     1
 90
        1
176
     1
 90
        1
176
     1
 40
1.0
176
     1
 90
        8
176
     1
 62
   257
176
     1
 40
1.0
176
     1
 90
        1
176
     1
 90
        6
176
     1
 90
        2
176
     1
 62
     8
420
  7895160
176
     1
 90
        3
176
     1
 90
        0
176
     1
 90
        0
176
     1
290
     0
176
     1
 90
        5
176
     1
 40
0.0
176
     1
 90
        0
176
     1
290
     0
176
     1
290
     1
176
     1
290
     1
176
     1
290
     0
176
     1
290
     0
176
     1
290
     0
176
     1
290
     0
176
     1
290
     0
176
     1
290
     0
176
     1
 90
       50
176
     1
 40
0.0
176
     1
 40
1.0
176
     1
 90
        0
176
     1
 62
    18
420
        0
176
     1
 90
       50
176
     1
 90
        3
176
     1
 62
     5
420
      255
176
     1
290
     0
176
     1
 90
       50
176
     1
 90
       50
176
     1
 90
       50
176
     1
290
     0
176
     1
 90
       50
176
     1
 62
   256
176
     0
 40
1.0
176
     0
 90
        2
176
     1
  1
strokes_ogs.tif
176
     1
290
     0
176
     1
 40
1.0
176
     1
 40
1.0
176
     1
  0
VISUALSTYLE
  5
610
102
{ACAD_REACTORS
330
5F9
102
}
330
5F9
100
AcDbVisualStyle
  2
Shaded with edges
 70
    26
177
     3
291
     0
 70
    58
 90
        2
176
     1
 90
        2
176
     1
 90
        1
176
     1
 90
        2
176
     1
 40
0.6
176
     1
 40
30.0
176
     1
 62
     7
420
 16777215
176
     1
 90
        1
176
     1
 90
       10
176
     1
 62
     7
176
     1
 62
   257
176
     1
 90
        2
176
     1
 90
        1
176
     1
 40
1.0
176
     1
 90
        8
176
     1
 62
   257
176
     1
 40
1.0
176
     1
 90
        1
176
     1
 90
        6
176
     1
 90
        2
176
     1
 62
     7
176
     1
 90
        3
176
     1
 90
        0
176
     1
 90
        0
176
     1
290
     0
176
     1
 90
        5
176
     1
 40
0.0
176
     1
 90
        0
176
     1
290
     0
176
     1
290
     1
176
     1
290
     1
176
     1
290
     0
176
     1
290
     0
176
     1
290
     0
176
     1
290
     0
176
     1
290
     0
176
     1
290
     0
176
     1
 90
       50
176
     1
 40
0.0
176
     1
 40
1.0
176
     1
 90
        0
176
     1
 62
    18
420
        0
176
     1
 90
       50
176
     1
 90
        3
176
     1
 62
     5
420
      255
176
     1
290
     0
176
     1
 90
       50
176
     1
 90
       50
176
     1
 90
       50
176
     1
290
     0
176
     1
 90
       50
176
     1
 62
   256
176
     0
 40
1.0
176
     0
 90
        2
176
     1
  1
strokes_ogs.tif
176
     1
290
     0
176
     1
 40
1.0
176
     1
 40
1.0
176
     1
  0
VISUALSTYLE
  5
60D
102
{ACAD_REACTORS
330
5F9
102
}
330
5F9
100
AcDbVisualStyle
  2
Shades of Gray
 70
    23
177
     3
291
     0
 70
    58
 90
        2
176
     1
 90
        2
176
     1
 90
        3
176
     1
 90
        0
176
     1
 40
0.6
176
     1
 40
30.0
176
     1
 62
     7
420
 16777215
176
     1
 90
        2
176
     1
 90
        2
176
     1
 62
     7
176
     1
 62
     7
176
     1
 90
        1
176
     1
 90
        1
176
     1
 40
40.0
176
     1
 90
        8
176
     1
 62
     7
176
     1
 40
1.0
176
     1
 90
        1
176
     1
 90
        6
176
     1
 90
        2
176
     1
 62
     7
176
     1
 90
        3
176
     1
 90
        0
176
     1
 90
        0
176
     1
290
     0
176
     1
 90
        1
176
     1
 40
0.0
176
     1
 90
        0
176
     1
290
     0
176
     1
290
     1
176
     1
290
     1
176
     1
290
     0
176
     1
290
     0
176
     1
290
     0
176
     1
290
     0
176
     1
290
     0
176
     1
290
     0
176
     1
 90
       50
176
     1
 40
0.0
176
     1
 40
1.0
176
     1
 90
        0
176
     1
 62
    18
420
        0
176
     1
 90
       50
176
     1
 90
        3
176
     1
 62
     5
420
      255
176
     1
290
     0
176
     1
 90
       50
176
     1
 90
       50
176
     1
 90
       50
176
     1
290
     0
176
     1
 90
       50
176
     1
 62
   256
176
     0
 40
1.0
176
     0
 90
        2
176
     1
  1
strokes_ogs.tif
176
     1
290
     0
176
     1
 40
1.0
176
     1
 40
1.0
176
     1
  0
VISUALSTYLE
  5
60E
102
{ACAD_REACTORS
330
5F9
102
}
330
5F9
100
AcDbVisualStyle
  2
Sketchy
 70
    24
177
     3
291
     0
 70
    58
 90
        1
176
     1
 90
        2
176
     1
 90
        2
176
     1
 90
        0
176
     1
 40
0.6
176
     1
 40
30.0
176
     1
 62
     7
420
 16777215
176
     1
 90
        2
176
     1
 90
        2
176
     1
 62
     7
176
     1
 62
     7
176
     1
 90
        1
176
     1
 90
        1
176
     1
 40
40.0
176
     1
 90
       11
176
     1
 62
     7
176
     1
 40
1.0
176
     1
 90
        1
176
     1
 90
        6
176
     1
 90
        2
176
     1
 62
     7
176
     1
 90
        6
176
     1
 90
        0
176
     1
 90
        0
176
     1
290
     0
176
     1
 90
        1
176
     1
 40
0.0
176
     1
 90
        0
176
     1
290
     0
176
     1
290
     1
176
     1
290
     1
176
     1
290
     0
176
     1
290
     0
176
     1
290
     0
176
     1
290
     0
176
     1
290
     0
176
     1
290
     0
176
     1
 90
       50
176
     1
 40
0.0
176
     1
 40
1.0
176
     1
 90
        0
176
     1
 62
    18
420
        0
176
     1
 90
       50
176
     1
 90
        3
176
     1
 62
     5
420
      255
176
     1
290
     0
176
     1
 90
       50
176
     1
 90
       50
176
     1
 90
       50
176
     1
290
     0
176
     1
 90
       50
176
     1
 62
   256
176
     0
 40
1.0
176
     0
 90
        2
176
     1
  1
strokes_ogs.tif
176
     1
290
     0
176
     1
 40
1.0
176
     1
 40
1.0
176
     1
  0
VISUALSTYLE
  5
606
102
{ACAD_REACTORS
330
5F9
102
}
330
5F9
100
AcDbVisualStyle
  2
Thicken
 70
    13
177
     3
291
     1
 70
    58
 90
        2
176
     1
 90
        2
176
     1
 90
        0
176
     1
 90
        0
176
     1
 40
0.6
176
     1
 40
30.0
176
     1
 62
     7
420
 16777215
176
     1
 90
        1
176
     1
 90
        4
176
     1
 62
     7
176
     1
 62
   257
176
     1
 90
        1
176
     1
 90
        1
176
     1
 40
1.0
176
     1
 90
       12
176
     1
 62
     7
176
     1
 40
1.0
176
     1
 90
        1
176
     1
 90
        6
176
     1
 90
        2
176
     1
 62
     7
176
     1
 90
        5
176
     1
 90
        0
176
     1
 90
        0
176
     1
290
     0
176
     1
 90
        1
176
     1
 40
0.0
176
     1
 90
        0
176
     1
290
     0
176
     1
290
     1
176
     1
290
     1
176
     1
290
     0
176
     1
290
     0
176
     1
290
     0
176
     1
290
     0
176
     1
290
     0
176
     1
290
     0
176
     1
 90
       50
176
     1
 40
0.0
176
     1
 40
1.0
176
     1
 90
        0
176
     1
 62
    18
420
        0
176
     1
 90
       50
176
     1
 90
        3
176
     1
 62
     5
420
      255
176
     1
290
     0
176
     1
 90
       50
176
     1
 90
       50
176
     1
 90
       50
176
     1
290
     0
176
     1
 90
       50
176
     1
 62
   256
176
     0
 40
1.0
176
     0
 90
        2
176
     1
  1
strokes_ogs.tif
176
     1
290
     0
176
     1
 40
1.0
176
     1
 40
1.0
176
     1
  0
VISUALSTYLE
  5
5FF
102
{ACAD_REACTORS
330
5F9
102
}
330
5F9
100
AcDbVisualStyle
  2
Wireframe
 70
     5
177
     3
291
     0
 70
    58
 90
        0
176
     1
 90
        2
176
     1
 90
        0
176
     1
 90
        0
176
     1
 40
0.6
176
     1
 40
30.0
176
     1
 62
     7
420
 16777215
176
     1
 90
        1
176
     1
 90
        4
176
     1
 62
     7
176
     1
 62
   257
176
     1
 90
        1
176
     1
 90
        1
176
     1
 40
1.0
176
     1
 90
        0
176
     1
 62
   257
176
     1
 40
1.0
176
     1
 90
        1
176
     1
 90
        6
176
     1
 90
        2
176
     1
 62
     7
176
     1
 90
        3
176
     1
 90
        0
176
     1
 90
        0
176
     1
290
     0
176
     1
 90
        1
176
     1
 40
0.0
176
     1
 90
        0
176
     1
290
     0
176
     1
290
     1
176
     1
290
     1
176
     1
290
     0
176
     1
290
     0
176
     1
290
     0
176
     1
290
     0
176
     1
290
     0
176
     1
290
     0
176
     1
 90
       50
176
     1
 40
0.0
176
     1
 40
1.0
176
     1
 90
        0
176
     1
 62
    18
420
        0
176
     1
 90
       50
176
     1
 90
        3
176
     1
 62
     5
420
      255
176
     1
290
     0
176
     1
 90
       50
176
     1
 90
       50
176
     1
 90
       50
176
     1
290
     0
176
     1
 90
       50
176
     1
 62
   256
176
     0
 40
1.0
176
     0
 90
        2
176
     1
  1
strokes_ogs.tif
176
     1
290
     0
176
     1
 40
1.0
176
     1
 40
1.0
176
     1
  0
VISUALSTYLE
  5
60F
102
{ACAD_REACTORS
330
5F9
102
}
330
5F9
100
AcDbVisualStyle
  2
X-Ray
 70
    25
177
     3
291
     0
 70
    58
 90
        2
176
     1
 90
        2
176
     1
 90
        1
176
     1
 90
        1
176
     1
 40
0.5
176
     1
 40
30.0
176
     1
 62
     7
420
 16777215
176
     1
 90
        1
176
     1
 90
        0
176
     1
 62
     7
176
     1
 62
   257
176
     1
 90
        1
176
     1
 90
        1
176
     1
 40
1.0
176
     1
 90
        8
176
     1
 62
     7
176
     1
 40
1.0
176
     1
 90
        1
176
     1
 90
        6
176
     1
 90
        2
176
     1
 62
     7
176
     1
 90
        3
176
     1
 90
        0
176
     1
 90
        0
176
     1
290
     0
176
     1
 90
       13
176
     1
 40
0.0
176
     1
 90
        0
176
     1
290
     0
176
     1
290
     1
176
     1
290
     1
176
     1
290
     0
176
     1
290
     0
176
     1
290
     0
176
     1
290
     0
176
     1
290
     0
176
     1
290
     0
176
     1
 90
       50
176
     1
 40
0.0
176
     1
 40
1.0
176
     1
 90
        0
176
     1
 62
    18
420
        0
176
     1
 90
       50
176
     1
 90
        3
176
     1
 62
     5
420
      255
176
     1
290
     0
176
     1
 90
       50
176
     1
 90
       50
176
     1
 90
       50
176
     1
290
     0
176
     1
 90
       50
176
     1
 62
   256
176
     0
 40
1.0
176
     0
 90
        2
176
     1
  1
strokes_ogs.tif
176
     1
290
     0
176
     1
 40
1.0
176
     1
 40
1.0
176
     1
  0
DICTIONARYVAR
  5
67F
102
{ACAD_REACTORS
330
67E
102
}
330
67E
100
DictionaryVariables
280
     0
  1
1:1
  0
XRECORD
  5
63B
102
{ACAD_REACTORS
330
63A
102
}
330
63A
100
AcDbXrecord
280
     1
290
     1
  0
XRECORD
  5
63C
102
{ACAD_REACTORS
330
63A
102
}
330
63A
100
AcDbXrecord
280
     1
290
     1
  0
XRECORD
  5
63D
102
{ACAD_REACTORS
330
63A
102
}
330
63A
100
AcDbXrecord
280
     1
290
     1
  0
XRECORD
  5
63E
102
{ACAD_REACTORS
330
63A
102
}
330
63A
100
AcDbXrecord
280
     1
290
     1
  0
XRECORD
  5
63F
102
{ACAD_REACTORS
330
63A
102
}
330
63A
100
AcDbXrecord
280
     1
1000
auto
  0
XRECORD
  5
640
102
{ACAD_REACTORS
330
63A
102
}
330
63A
100
AcDbXrecord
280
     1
1000
auto
  0
XRECORD
  5
641
102
{ACAD_REACTORS
330
63A
102
}
330
63A
100
AcDbXrecord
280
     1
1000
auto
  0
XRECORD
  5
642
102
{ACAD_REACTORS
330
63A
102
}
330
63A
100
AcDbXrecord
280
     1
1000
auto
  0
XRECORD
  5
643
102
{ACAD_REACTORS
330
63A
102
}
330
63A
100
AcDbXrecord
280
     1
1000
auto
  0
XRECORD
  5
644
102
{ACAD_REACTORS
330
63A
102
}
330
63A
100
AcDbXrecord
280
     1
1000
auto
  0
XRECORD
  5
645
102
{ACAD_REACTORS
330
63A
102
}
330
63A
100
AcDbXrecord
280
     1
1000
auto
  0
XRECORD
  5
646
102
{ACAD_REACTORS
330
63A
102
}
330
63A
100
AcDbXrecord
280
     1
1000
auto
  0
XRECORD
  5
647
102
{ACAD_REACTORS
330
63A
102
}
330
63A
100
AcDbXrecord
280
     1
290
     0
  0
XRECORD
  5
648
102
{ACAD_REACTORS
330
63A
102
}
330
63A
100
AcDbXrecord
280
     1
290
     0
  0
XRECORD
  5
649
102
{ACAD_REACTORS
330
63A
102
}
330
63A
100
AcDbXrecord
280
     1
290
     0
  0
XRECORD
  5
64A
102
{ACAD_REACTORS
330
63A
102
}
330
63A
100
AcDbXrecord
280
     1
290
     0
  0
XRECORD
  5
64B
102
{ACAD_REACTORS
330
63A
102
}
330
63A
100
AcDbXrecord
280
     1
 90
        0
  0
XRECORD
  5
64C
102
{ACAD_REACTORS
330
63A
102
}
330
63A
100
AcDbXrecord
280
     1
 90
        0
  0
XRECORD
  5
64D
102
{ACAD_REACTORS
330
63A
102
}
330
63A
100
AcDbXrecord
280
     1
 90
        0
  0
XRECORD
  5
64E
102
{ACAD_REACTORS
330
63A
102
}
330
63A
100
AcDbXrecord
280
     1
 90
        0
  0
XRECORD
  5
64F
102
{ACAD_REACTORS
330
63A
102
}
330
63A
100
AcDbXrecord
280
     1
1000
auto
  0
XRECORD
  5
650
102
{ACAD_REACTORS
330
63A
102
}
330
63A
100
AcDbXrecord
280
     1
1000
auto
  0
XRECORD
  5
651
102
{ACAD_REACTORS
330
63A
102
}
330
63A
100
AcDbXrecord
280
     1
1000
auto
  0
XRECORD
  5
652
102
{ACAD_REACTORS
330
63A
102
}
330
63A
100
AcDbXrecord
280
     1
1000
auto
  0
XRECORD
  5
653
102
{ACAD_REACTORS
330
63A
102
}
330
63A
100
AcDbXrecord
280
     1
1000
auto
  0
XRECORD
  5
654
102
{ACAD_REACTORS
330
63A
102
}
330
63A
100
AcDbXrecord
280
     1
1000
auto
  0
XRECORD
  5
655
102
{ACAD_REACTORS
330
63A
102
}
330
63A
100
AcDbXrecord
280
     1
1000
auto
  0
XRECORD
  5
656
102
{ACAD_REACTORS
330
63A
102
}
330
63A
100
AcDbXrecord
280
     1
1000
auto
  0
XRECORD
  5
657
102
{ACAD_REACTORS
330
63A
102
}
330
63A
100
AcDbXrecord
280
     1
 90
        1
  0
XRECORD
  5
658
102
{ACAD_REACTORS
330
63A
102
}
330
63A
100
AcDbXrecord
280
     1
 40
10.0
  0
XRECORD
  5
659
102
{ACAD_REACTORS
330
63A
102
}
330
63A
100
AcDbXrecord
280
     1
 40
10.0
  0
XRECORD
  5
65A
102
{ACAD_REACTORS
330
63A
102
}
330
63A
100
AcDbXrecord
280
     1
 40
10.0
  0
XRECORD
  5
65B
102
{ACAD_REACTORS
330
63A
102
}
330
63A
100
AcDbXrecord
280
     1
 40
10.0
  0
XRECORD
  5
65C
102
{ACAD_REACTORS
330
63A
102
}
330
63A
100
AcDbXrecord
280
     1
290
     0
  0
XRECORD
  5
65D
102
{ACAD_REACTORS
330
63A
102
}
330
63A
100
AcDbXrecord
280
     1
 90
        1
  0
XRECORD
  5
65E
102
{ACAD_REACTORS
330
63A
102
}
330
63A
100
AcDbXrecord
280
     1
 40
0.0
  0
XRECORD
  5
65F
102
{ACAD_REACTORS
330
63A
102
}
330
63A
100
AcDbXrecord
280
     1
 40
0.0
  0
XRECORD
  5
660
102
{ACAD_REACTORS
330
63A
102
}
330
63A
100
AcDbXrecord
280
     1
1000
Portrait
  0
XRECORD
  5
661
102
{ACAD_REACTORS
330
63A
102
}
330
63A
100
AcDbXrecord
280
     1
 40
297.0
  0
XRECORD
  5
662
102
{ACAD_REACTORS
330
63A
102
}
330
63A
100
AcDbXrecord
280
     1
 40
210.0
  0
XRECORD
  5
663
102
{ACAD_REACTORS
330
63A
102
}
330
63A
100
AcDbXrecord
280
     1
1000
1:1
  0
XRECORD
  5
664
102
{ACAD_REACTORS
330
63A
102
}
330
63A
100
AcDbXrecord
280
     1
290
     1
  0
XRECORD
  5
665
102
{ACAD_REACTORS
330
63A
102
}
330
63A
100
AcDbXrecord
280
     1
 90
        4
  0
ENDSEC
  0
EOF
